  0
SECTION
  2
HEADER
  9
$ACADVER
  1
AC1009
  9
$INSBASE
 10
0.000000
 20
0.000000
  9
$LIMMIN
 10
-126.365000
 20
-260.781800
  9
$LIMMAX
 10
788.035000
 20
348.818200
  9
$EXTMIN
 10
-126.365000
 20
-260.781800
  9
$EXTMAX
 10
788.035000
 20
348.818200
  9
$ATTMODE
 70
0
  9
$LUNITS
 70
2
  9
$LUPREC
 70
4
  9
$THICKNESS
 40
1.577340
  0
ENDSEC
  0
SECTION
  2
TABLES
  0
TABLE
  2
LTYPE
 70
1
  0
LTYPE
  3
Solid Line
  2
CONTINUOUS
 70
0
 72
65
 73
0
 40
0.000000
  0
ENDTAB
  0
TABLE
  2
LAYER
 70
15
  0
LAYER
  2
BG_SILKSCREEN_TOP
 70
0
 62
1
  6
CONTINUOUS
  0
LAYER
  2
BG_DIMENSION
 70
0
 62
2
  6
CONTINUOUS
  0
LAYER
  2
BG_OUTLINE
 70
0
 62
3
  6
CONTINUOUS
  0
LAYER
  2
DF_REVISION_DATA
 70
0
 62
4
  6
CONTINUOUS
  0
LAYER
  2
DF_REVISION_BLOCK
 70
0
 62
5
  6
CONTINUOUS
  0
LAYER
  2
DF_TITLE_DATA
 70
0
 62
6
  6
CONTINUOUS
  0
LAYER
  2
DF_TITLE_BLOCK
 70
0
 62
7
  6
CONTINUOUS
  0
LAYER
  2
DF_OUTLINE
 70
0
 62
8
  6
CONTINUOUS
  0
LAYER
  2
PG_SILKSCREEN_TOP
 70
0
 62
9
  6
CONTINUOUS
  0
LAYER
  2
PIN_TOP
 70
0
 62
10
  6
CONTINUOUS
  0
LAYER
  2
PIN_IN1-LAYER3
 70
0
 62
11
  6
CONTINUOUS
  0
LAYER
  2
PIN_IN2-LAYER4
 70
0
 62
12
  6
CONTINUOUS
  0
LAYER
  2
PIN_IN3-LAYER6
 70
0
 62
13
  6
CONTINUOUS
  0
LAYER
  2
PIN_BOTTOM
 70
0
 62
14
  6
CONTINUOUS
  0
LAYER
  2
RD_SILKSCREEN_TOP
 70
0
 62
15
  6
CONTINUOUS
  0
ENDTAB
  0
TABLE
  2
STYLE
 70
1
  0
STYLE
  2
STANDARD
 70
0
 40
0.000000
 41
1.000000
 50
0.000000
 71
0
 42
0.200000
  3
txt
  0
ENDTAB
  0
ENDSEC
  0
SECTION
  2
BLOCKS
  0
BLOCK
  8
0
  2
FIGURE_CIRCLE
 70
0
 10
0.000000
 20
0.000000
  0
CIRCLE
  8
0
 10
0.000000
 20
0.000000
 40
0.500000
  0
ENDBLK
  0
BLOCK
  8
0
  2
FIGURE_SQUARE
 70
0
 10
0.000000
 20
0.000000
  0
POLYLINE
  8
0
 66
1
 70
1
 40
0.000000
 41
0.000000
 39
0.000000
  0
VERTEX
  8
0
 10
-0.500000
 20
-0.500000
 40
0.000000
 41
0.000000
 42
0.000000
  0
VERTEX
  8
0
 10
-0.500000
 20
0.500000
 40
0.000000
 41
0.000000
 42
0.000000
  0
VERTEX
  8
0
 10
0.500000
 20
0.500000
 40
0.000000
 41
0.000000
 42
0.000000
  0
VERTEX
  8
0
 10
0.500000
 20
-0.500000
 40
0.000000
 41
0.000000
 42
0.000000
  0
SEQEND
  0
ENDBLK
  0
BLOCK
  8
0
  2
FIGURE_HEX
 70
0
 10
0.000000
 20
0.000000
  0
POLYLINE
  8
0
 66
1
 70
1
 40
0.000000
 41
0.000000
 39
0.000000
  0
VERTEX
  8
0
 10
-0.500000
 20
0.000000
 40
0.000000
 41
0.000000
 42
0.000000
  0
VERTEX
  8
0
 10
-0.250000
 20
0.500000
 40
0.000000
 41
0.000000
 42
0.000000
  0
VERTEX
  8
0
 10
0.250000
 20
0.500000
 40
0.000000
 41
0.000000
 42
0.000000
  0
VERTEX
  8
0
 10
0.500000
 20
0.000000
 40
0.000000
 41
0.000000
 42
0.000000
  0
VERTEX
  8
0
 10
0.250000
 20
-0.500000
 40
0.000000
 41
0.000000
 42
0.000000
  0
VERTEX
  8
0
 10
-0.250000
 20
-0.500000
 40
0.000000
 41
0.000000
 42
0.000000
  0
SEQEND
  0
ENDBLK
  0
BLOCK
  8
0
  2
FIGURE_OCT
 70
0
 10
0.000000
 20
0.000000
  0
POLYLINE
  8
0
 66
1
 70
1
 40
0.000000
 41
0.000000
 39
0.000000
  0
VERTEX
  8
0
 10
-0.500000
 20
-0.207100
 40
0.000000
 41
0.000000
 42
0.000000
  0
VERTEX
  8
0
 10
-0.500000
 20
0.207100
 40
0.000000
 41
0.000000
 42
0.000000
  0
VERTEX
  8
0
 10
-0.207100
 20
0.500000
 40
0.000000
 41
0.000000
 42
0.000000
  0
VERTEX
  8
0
 10
0.207100
 20
0.500000
 40
0.000000
 41
0.000000
 42
0.000000
  0
VERTEX
  8
0
 10
0.500000
 20
0.207100
 40
0.000000
 41
0.000000
 42
0.000000
  0
VERTEX
  8
0
 10
0.500000
 20
-0.207100
 40
0.000000
 41
0.000000
 42
0.000000
  0
VERTEX
  8
0
 10
0.207100
 20
-0.500000
 40
0.000000
 41
0.000000
 42
0.000000
  0
VERTEX
  8
0
 10
-0.207100
 20
-0.500000
 40
0.000000
 41
0.000000
 42
0.000000
  0
SEQEND
  0
ENDBLK
  0
BLOCK
  8
0
  2
FIGURE_OBLONG
 70
0
 10
0.000000
 20
0.000000
  0
POLYLINE
  8
0
 66
1
 70
1
 40
0.000000
 41
0.000000
 39
0.000000
  0
VERTEX
  8
0
 10
-0.500000
 20
-0.125000
 40
0.000000
 41
0.000000
 42
0.000000
  0
VERTEX
  8
0
 10
-0.500000
 20
0.125000
 40
0.000000
 41
0.000000
 42
0.000000
  0
VERTEX
  8
0
 10
-0.416000
 20
0.375000
 40
0.000000
 41
0.000000
 42
0.000000
  0
VERTEX
  8
0
 10
-0.250000
 20
0.500000
 40
0.000000
 41
0.000000
 42
0.000000
  0
VERTEX
  8
0
 10
0.250000
 20
0.500000
 40
0.000000
 41
0.000000
 42
0.000000
  0
VERTEX
  8
0
 10
0.416000
 20
0.375000
 40
0.000000
 41
0.000000
 42
0.000000
  0
VERTEX
  8
0
 10
0.500000
 20
0.125000
 40
0.000000
 41
0.000000
 42
0.000000
  0
VERTEX
  8
0
 10
0.500000
 20
-0.125000
 40
0.000000
 41
0.000000
 42
0.000000
  0
VERTEX
  8
0
 10
0.416000
 20
-0.375000
 40
0.000000
 41
0.000000
 42
0.000000
  0
VERTEX
  8
0
 10
0.250000
 20
-0.500000
 40
0.000000
 41
0.000000
 42
0.000000
  0
VERTEX
  8
0
 10
-0.250000
 20
-0.500000
 40
0.000000
 41
0.000000
 42
0.000000
  0
VERTEX
  8
0
 10
-0.416000
 20
-0.375000
 40
0.000000
 41
0.000000
 42
0.000000
  0
SEQEND
  0
ENDBLK
  0
BLOCK
  8
0
  2
FIGURE_TRI
 70
0
 10
0.000000
 20
0.000000
  0
POLYLINE
  8
0
 66
1
 70
1
 40
0.000000
 41
0.000000
 39
0.000000
  0
VERTEX
  8
0
 10
-0.500000
 20
-0.500000
 40
0.000000
 41
0.000000
 42
0.000000
  0
VERTEX
  8
0
 10
0.000000
 20
0.500000
 40
0.000000
 41
0.000000
 42
0.000000
  0
VERTEX
  8
0
 10
0.500000
 20
-0.500000
 40
0.000000
 41
0.000000
 42
0.000000
  0
SEQEND
  0
ENDBLK
  0
BLOCK
  8
0
  2
FIGURE_CROSS
 70
0
 10
0.000000
 20
0.000000
  0
POLYLINE
  8
0
 66
1
 70
0
 40
0.000000
 41
0.000000
 39
0.000000
  0
VERTEX
  8
0
 10
-0.500000
 20
0.000000
 40
0.000000
 41
0.000000
 42
0.000000
  0
VERTEX
  8
0
 10
0.500000
 20
0.000000
 40
0.000000
 41
0.000000
 42
0.000000
  0
SEQEND
  0
POLYLINE
  8
0
 66
1
 70
0
 40
0.000000
 41
0.000000
 39
0.000000
  0
VERTEX
  8
0
 10
0.000000
 20
0.500000
 40
0.000000
 41
0.000000
 42
0.000000
  0
VERTEX
  8
0
 10
0.000000
 20
-0.500000
 40
0.000000
 41
0.000000
 42
0.000000
  0
SEQEND
  0
ENDBLK
  0
BLOCK
  8
0
  2
FIGURE_DIAMOND
 70
0
 10
0.000000
 20
0.000000
  0
POLYLINE
  8
0
 66
1
 70
1
 40
0.000000
 41
0.000000
 39
0.000000
  0
VERTEX
  8
0
 10
-0.500000
 20
0.000000
 40
0.000000
 41
0.000000
 42
0.000000
  0
VERTEX
  8
0
 10
0.000000
 20
0.500000
 40
0.000000
 41
0.000000
 42
0.000000
  0
VERTEX
  8
0
 10
0.500000
 20
0.000000
 40
0.000000
 41
0.000000
 42
0.000000
  0
VERTEX
  8
0
 10
0.000000
 20
-0.500000
 40
0.000000
 41
0.000000
 42
0.000000
  0
SEQEND
  0
ENDBLK
  0
ENDSEC
  0
SECTION
  2
ENTITIES
  0
POLYLINE
  8
BG_DIMENSION
 66
1
 70
0
 40
0.000000
 41
0.000000
 39
0.000000
  0
VERTEX
  8
BG_DIMENSION
 10
-6.005000
 20
2.000000
 40
0.000000
 41
0.000000
 42
0.000000
  0
VERTEX
  8
BG_DIMENSION
 10
-6.005000
 20
4.000000
 40
0.000000
 41
0.000000
 42
0.000000
  0
SEQEND
  0
POLYLINE
  8
BG_DIMENSION
 66
1
 70
1
 40
0.000000
 41
0.000000
 39
0.000000
  0
VERTEX
  8
BG_DIMENSION
 10
-6.630000
 20
8.000000
 40
0.000000
 41
0.000000
 42
0.000000
  0
VERTEX
  8
BG_DIMENSION
 10
-6.005000
 20
4.000000
 40
0.000000
 41
0.000000
 42
0.000000
  0
VERTEX
  8
BG_DIMENSION
 10
-5.380000
 20
8.000000
 40
0.000000
 41
0.000000
 42
0.000000
  0
SEQEND
  0
POLYLINE
  8
BG_DIMENSION
 66
1
 70
0
 40
0.000000
 41
0.000000
 39
0.000000
  0
VERTEX
  8
BG_DIMENSION
 10
-6.005000
 20
11.279800
 40
0.000000
 41
0.000000
 42
0.000000
  0
VERTEX
  8
BG_DIMENSION
 10
-6.005000
 20
4.000000
 40
0.000000
 41
0.000000
 42
0.000000
  0
SEQEND
  0
POLYLINE
  8
BG_DIMENSION
 66
1
 70
1
 40
0.000000
 41
0.000000
 39
0.000000
  0
VERTEX
  8
BG_DIMENSION
 10
-5.380000
 20
-2.000000
 40
0.000000
 41
0.000000
 42
0.000000
  0
VERTEX
  8
BG_DIMENSION
 10
-6.005000
 20
2.000000
 40
0.000000
 41
0.000000
 42
0.000000
  0
VERTEX
  8
BG_DIMENSION
 10
-6.630000
 20
-2.000000
 40
0.000000
 41
0.000000
 42
0.000000
  0
SEQEND
  0
POLYLINE
  8
BG_DIMENSION
 66
1
 70
0
 40
0.000000
 41
0.000000
 39
0.000000
  0
VERTEX
  8
BG_DIMENSION
 10
-6.005000
 20
-6.000000
 40
0.000000
 41
0.000000
 42
0.000000
  0
VERTEX
  8
BG_DIMENSION
 10
-6.005000
 20
2.000000
 40
0.000000
 41
0.000000
 42
0.000000
  0
SEQEND
  0
POLYLINE
  8
BG_DIMENSION
 66
1
 70
0
 40
0.000000
 41
0.000000
 39
0.000000
  0
VERTEX
  8
BG_DIMENSION
 10
0.500000
 20
2.000000
 40
0.000000
 41
0.000000
 42
0.000000
  0
VERTEX
  8
BG_DIMENSION
 10
-8.505000
 20
2.000000
 40
0.000000
 41
0.000000
 42
0.000000
  0
SEQEND
  0
POLYLINE
  8
BG_DIMENSION
 66
1
 70
0
 40
0.000000
 41
0.000000
 39
0.000000
  0
VERTEX
  8
BG_DIMENSION
 10
0.500000
 20
4.000000
 40
0.000000
 41
0.000000
 42
0.000000
  0
VERTEX
  8
BG_DIMENSION
 10
-8.505000
 20
4.000000
 40
0.000000
 41
0.000000
 42
0.000000
  0
SEQEND
  0
TEXT
  8
BG_DIMENSION
 10
-7.592500
 20
6.536400
 11
0.000000
 21
0.000000
 40
3.175000
 41
0.992000
 50
90.000000
  7
STANDARD
 71
0
 72
0
  1
2
 73
0
  0
POLYLINE
  8
BG_DIMENSION
 66
1
 70
0
 40
0.000000
 41
0.000000
 39
0.000000
  0
VERTEX
  8
BG_DIMENSION
 10
3.000000
 20
-8.497500
 40
0.000000
 41
0.000000
 42
0.000000
  0
VERTEX
  8
BG_DIMENSION
 10
5.000000
 20
-8.497500
 40
0.000000
 41
0.000000
 42
0.000000
  0
SEQEND
  0
POLYLINE
  8
BG_DIMENSION
 66
1
 70
1
 40
0.000000
 41
0.000000
 39
0.000000
  0
VERTEX
  8
BG_DIMENSION
 10
9.000000
 20
-7.872500
 40
0.000000
 41
0.000000
 42
0.000000
  0
VERTEX
  8
BG_DIMENSION
 10
5.000000
 20
-8.497500
 40
0.000000
 41
0.000000
 42
0.000000
  0
VERTEX
  8
BG_DIMENSION
 10
9.000000
 20
-9.122500
 40
0.000000
 41
0.000000
 42
0.000000
  0
SEQEND
  0
POLYLINE
  8
BG_DIMENSION
 66
1
 70
0
 40
0.000000
 41
0.000000
 39
0.000000
  0
VERTEX
  8
BG_DIMENSION
 10
13.197300
 20
-8.497500
 40
0.000000
 41
0.000000
 42
0.000000
  0
VERTEX
  8
BG_DIMENSION
 10
5.000000
 20
-8.497500
 40
0.000000
 41
0.000000
 42
0.000000
  0
SEQEND
  0
POLYLINE
  8
BG_DIMENSION
 66
1
 70
1
 40
0.000000
 41
0.000000
 39
0.000000
  0
VERTEX
  8
BG_DIMENSION
 10
-1.000000
 20
-9.122500
 40
0.000000
 41
0.000000
 42
0.000000
  0
VERTEX
  8
BG_DIMENSION
 10
3.000000
 20
-8.497500
 40
0.000000
 41
0.000000
 42
0.000000
  0
VERTEX
  8
BG_DIMENSION
 10
-1.000000
 20
-7.872500
 40
0.000000
 41
0.000000
 42
0.000000
  0
SEQEND
  0
POLYLINE
  8
BG_DIMENSION
 66
1
 70
0
 40
0.000000
 41
0.000000
 39
0.000000
  0
VERTEX
  8
BG_DIMENSION
 10
-5.000000
 20
-8.497500
 40
0.000000
 41
0.000000
 42
0.000000
  0
VERTEX
  8
BG_DIMENSION
 10
3.000000
 20
-8.497500
 40
0.000000
 41
0.000000
 42
0.000000
  0
SEQEND
  0
POLYLINE
  8
BG_DIMENSION
 66
1
 70
0
 40
0.000000
 41
0.000000
 39
0.000000
  0
VERTEX
  8
BG_DIMENSION
 10
5.000000
 20
-0.500000
 40
0.000000
 41
0.000000
 42
0.000000
  0
VERTEX
  8
BG_DIMENSION
 10
5.000000
 20
-10.997500
 40
0.000000
 41
0.000000
 42
0.000000
  0
SEQEND
  0
POLYLINE
  8
BG_DIMENSION
 66
1
 70
0
 40
0.000000
 41
0.000000
 39
0.000000
  0
VERTEX
  8
BG_DIMENSION
 10
3.000000
 20
-0.500000
 40
0.000000
 41
0.000000
 42
0.000000
  0
VERTEX
  8
BG_DIMENSION
 10
3.000000
 20
-10.997500
 40
0.000000
 41
0.000000
 42
0.000000
  0
SEQEND
  0
TEXT
  8
BG_DIMENSION
 10
8.453900
 20
-6.910000
 11
0.000000
 21
0.000000
 40
3.175000
 41
0.992000
 50
0.000000
  7
STANDARD
 71
0
 72
0
  1
2
 73
0
  0
POLYLINE
  8
BG_DIMENSION
 66
1
 70
0
 40
0.000000
 41
0.000000
 39
0.000000
  0
VERTEX
  8
BG_DIMENSION
 10
86.465800
 20
52.999900
 40
0.000000
 41
0.000000
 42
0.000000
  0
VERTEX
  8
BG_DIMENSION
 10
86.465800
 20
55.017500
 40
0.000000
 41
0.000000
 42
0.000000
  0
SEQEND
  0
POLYLINE
  8
BG_DIMENSION
 66
1
 70
1
 40
0.000000
 41
0.000000
 39
0.000000
  0
VERTEX
  8
BG_DIMENSION
 10
85.840800
 20
59.017500
 40
0.000000
 41
0.000000
 42
0.000000
  0
VERTEX
  8
BG_DIMENSION
 10
86.465800
 20
55.017500
 40
0.000000
 41
0.000000
 42
0.000000
  0
VERTEX
  8
BG_DIMENSION
 10
87.090800
 20
59.017500
 40
0.000000
 41
0.000000
 42
0.000000
  0
SEQEND
  0
POLYLINE
  8
BG_DIMENSION
 66
1
 70
0
 40
0.000000
 41
0.000000
 39
0.000000
  0
VERTEX
  8
BG_DIMENSION
 10
86.465800
 20
65.091300
 40
0.000000
 41
0.000000
 42
0.000000
  0
VERTEX
  8
BG_DIMENSION
 10
86.465800
 20
55.017500
 40
0.000000
 41
0.000000
 42
0.000000
  0
SEQEND
  0
POLYLINE
  8
BG_DIMENSION
 66
1
 70
1
 40
0.000000
 41
0.000000
 39
0.000000
  0
VERTEX
  8
BG_DIMENSION
 10
87.090800
 20
48.999900
 40
0.000000
 41
0.000000
 42
0.000000
  0
VERTEX
  8
BG_DIMENSION
 10
86.465800
 20
52.999900
 40
0.000000
 41
0.000000
 42
0.000000
  0
VERTEX
  8
BG_DIMENSION
 10
85.840800
 20
48.999900
 40
0.000000
 41
0.000000
 42
0.000000
  0
SEQEND
  0
POLYLINE
  8
BG_DIMENSION
 66
1
 70
0
 40
0.000000
 41
0.000000
 39
0.000000
  0
VERTEX
  8
BG_DIMENSION
 10
86.465800
 20
44.999900
 40
0.000000
 41
0.000000
 42
0.000000
  0
VERTEX
  8
BG_DIMENSION
 10
86.465800
 20
52.999900
 40
0.000000
 41
0.000000
 42
0.000000
  0
SEQEND
  0
POLYLINE
  8
BG_DIMENSION
 66
1
 70
0
 40
0.000000
 41
0.000000
 39
0.000000
  0
VERTEX
  8
BG_DIMENSION
 10
73.499800
 20
52.999900
 40
0.000000
 41
0.000000
 42
0.000000
  0
VERTEX
  8
BG_DIMENSION
 10
88.965800
 20
52.999900
 40
0.000000
 41
0.000000
 42
0.000000
  0
SEQEND
  0
POLYLINE
  8
BG_DIMENSION
 66
1
 70
0
 40
0.000000
 41
0.000000
 39
0.000000
  0
VERTEX
  8
BG_DIMENSION
 10
76.515000
 20
55.017500
 40
0.000000
 41
0.000000
 42
0.000000
  0
VERTEX
  8
BG_DIMENSION
 10
88.965800
 20
55.017500
 40
0.000000
 41
0.000000
 42
0.000000
  0
SEQEND
  0
TEXT
  8
BG_DIMENSION
 10
84.878300
 20
60.347900
 11
0.000000
 21
0.000000
 40
3.175000
 41
0.992000
 50
90.000000
  7
STANDARD
 71
0
 72
0
  1
2
 73
0
  0
POLYLINE
  8
BG_DIMENSION
 66
1
 70
0
 40
0.000000
 41
0.000000
 39
0.000000
  0
VERTEX
  8
BG_DIMENSION
 10
70.999800
 20
58.322600
 40
0.000000
 41
0.000000
 42
0.000000
  0
VERTEX
  8
BG_DIMENSION
 10
74.000000
 20
58.322600
 40
0.000000
 41
0.000000
 42
0.000000
  0
SEQEND
  0
POLYLINE
  8
BG_DIMENSION
 66
1
 70
1
 40
0.000000
 41
0.000000
 39
0.000000
  0
VERTEX
  8
BG_DIMENSION
 10
78.000000
 20
58.947600
 40
0.000000
 41
0.000000
 42
0.000000
  0
VERTEX
  8
BG_DIMENSION
 10
74.000000
 20
58.322600
 40
0.000000
 41
0.000000
 42
0.000000
  0
VERTEX
  8
BG_DIMENSION
 10
78.000000
 20
57.697600
 40
0.000000
 41
0.000000
 42
0.000000
  0
SEQEND
  0
POLYLINE
  8
BG_DIMENSION
 66
1
 70
0
 40
0.000000
 41
0.000000
 39
0.000000
  0
VERTEX
  8
BG_DIMENSION
 10
82.000000
 20
58.322600
 40
0.000000
 41
0.000000
 42
0.000000
  0
VERTEX
  8
BG_DIMENSION
 10
74.000000
 20
58.322600
 40
0.000000
 41
0.000000
 42
0.000000
  0
SEQEND
  0
POLYLINE
  8
BG_DIMENSION
 66
1
 70
1
 40
0.000000
 41
0.000000
 39
0.000000
  0
VERTEX
  8
BG_DIMENSION
 10
66.999800
 20
57.697600
 40
0.000000
 41
0.000000
 42
0.000000
  0
VERTEX
  8
BG_DIMENSION
 10
70.999800
 20
58.322600
 40
0.000000
 41
0.000000
 42
0.000000
  0
VERTEX
  8
BG_DIMENSION
 10
66.999800
 20
58.947600
 40
0.000000
 41
0.000000
 42
0.000000
  0
SEQEND
  0
POLYLINE
  8
BG_DIMENSION
 66
1
 70
0
 40
0.000000
 41
0.000000
 39
0.000000
  0
VERTEX
  8
BG_DIMENSION
 10
59.914400
 20
58.322600
 40
0.000000
 41
0.000000
 42
0.000000
  0
VERTEX
  8
BG_DIMENSION
 10
70.999800
 20
58.322600
 40
0.000000
 41
0.000000
 42
0.000000
  0
SEQEND
  0
POLYLINE
  8
BG_DIMENSION
 66
1
 70
0
 40
0.000000
 41
0.000000
 39
0.000000
  0
VERTEX
  8
BG_DIMENSION
 10
74.000000
 20
57.510000
 40
0.000000
 41
0.000000
 42
0.000000
  0
VERTEX
  8
BG_DIMENSION
 10
74.000000
 20
60.822600
 40
0.000000
 41
0.000000
 42
0.000000
  0
SEQEND
  0
POLYLINE
  8
BG_DIMENSION
 66
1
 70
0
 40
0.000000
 41
0.000000
 39
0.000000
  0
VERTEX
  8
BG_DIMENSION
 10
70.999800
 20
55.499900
 40
0.000000
 41
0.000000
 42
0.000000
  0
VERTEX
  8
BG_DIMENSION
 10
70.999800
 20
60.822600
 40
0.000000
 41
0.000000
 42
0.000000
  0
SEQEND
  0
TEXT
  8
BG_DIMENSION
 10
62.295600
 20
59.910100
 11
0.000000
 21
0.000000
 40
3.175000
 41
0.992000
 50
0.000000
  7
STANDARD
 71
0
 72
0
  1
3
 73
0
  0
POLYLINE
  8
BG_DIMENSION
 66
1
 70
0
 40
0.000000
 41
0.000000
 39
0.000000
  0
VERTEX
  8
BG_DIMENSION
 10
84.462100
 20
4.000000
 40
0.000000
 41
0.000000
 42
0.000000
  0
VERTEX
  8
BG_DIMENSION
 10
84.462100
 20
11.500100
 40
0.000000
 41
0.000000
 42
0.000000
  0
SEQEND
  0
POLYLINE
  8
BG_DIMENSION
 66
1
 70
1
 40
0.000000
 41
0.000000
 39
0.000000
  0
VERTEX
  8
BG_DIMENSION
 10
83.837100
 20
15.500100
 40
0.000000
 41
0.000000
 42
0.000000
  0
VERTEX
  8
BG_DIMENSION
 10
84.462100
 20
11.500100
 40
0.000000
 41
0.000000
 42
0.000000
  0
VERTEX
  8
BG_DIMENSION
 10
85.087100
 20
15.500100
 40
0.000000
 41
0.000000
 42
0.000000
  0
SEQEND
  0
POLYLINE
  8
BG_DIMENSION
 66
1
 70
0
 40
0.000000
 41
0.000000
 39
0.000000
  0
VERTEX
  8
BG_DIMENSION
 10
84.462100
 20
26.364000
 40
0.000000
 41
0.000000
 42
0.000000
  0
VERTEX
  8
BG_DIMENSION
 10
84.462100
 20
11.500100
 40
0.000000
 41
0.000000
 42
0.000000
  0
SEQEND
  0
POLYLINE
  8
BG_DIMENSION
 66
1
 70
1
 40
0.000000
 41
0.000000
 39
0.000000
  0
VERTEX
  8
BG_DIMENSION
 10
85.087100
 20
0.000000
 40
0.000000
 41
0.000000
 42
0.000000
  0
VERTEX
  8
BG_DIMENSION
 10
84.462100
 20
4.000000
 40
0.000000
 41
0.000000
 42
0.000000
  0
VERTEX
  8
BG_DIMENSION
 10
83.837100
 20
0.000000
 40
0.000000
 41
0.000000
 42
0.000000
  0
SEQEND
  0
POLYLINE
  8
BG_DIMENSION
 66
1
 70
0
 40
0.000000
 41
0.000000
 39
0.000000
  0
VERTEX
  8
BG_DIMENSION
 10
84.462100
 20
-4.000000
 40
0.000000
 41
0.000000
 42
0.000000
  0
VERTEX
  8
BG_DIMENSION
 10
84.462100
 20
4.000000
 40
0.000000
 41
0.000000
 42
0.000000
  0
SEQEND
  0
POLYLINE
  8
BG_DIMENSION
 66
1
 70
0
 40
0.000000
 41
0.000000
 39
0.000000
  0
VERTEX
  8
BG_DIMENSION
 10
73.499800
 20
4.000000
 40
0.000000
 41
0.000000
 42
0.000000
  0
VERTEX
  8
BG_DIMENSION
 10
86.962100
 20
4.000000
 40
0.000000
 41
0.000000
 42
0.000000
  0
SEQEND
  0
POLYLINE
  8
BG_DIMENSION
 66
1
 70
0
 40
0.000000
 41
0.000000
 39
0.000000
  0
VERTEX
  8
BG_DIMENSION
 10
73.499900
 20
11.500100
 40
0.000000
 41
0.000000
 42
0.000000
  0
VERTEX
  8
BG_DIMENSION
 10
86.962100
 20
11.500100
 40
0.000000
 41
0.000000
 42
0.000000
  0
SEQEND
  0
TEXT
  8
BG_DIMENSION
 10
82.874600
 20
15.321400
 11
0.000000
 21
0.000000
 40
3.175000
 41
0.992000
 50
90.000000
  7
STANDARD
 71
0
 72
0
  1
7.5
 73
0
  0
POLYLINE
  8
BG_DIMENSION
 66
1
 70
1
 40
0.000000
 41
0.000000
 39
0.000000
  0
VERTEX
  8
BG_DIMENSION
 10
92.467800
 20
46.999900
 40
0.000000
 41
0.000000
 42
0.000000
  0
VERTEX
  8
BG_DIMENSION
 10
91.842800
 20
50.999900
 40
0.000000
 41
0.000000
 42
0.000000
  0
VERTEX
  8
BG_DIMENSION
 10
91.217800
 20
46.999900
 40
0.000000
 41
0.000000
 42
0.000000
  0
SEQEND
  0
POLYLINE
  8
BG_DIMENSION
 66
1
 70
0
 40
0.000000
 41
0.000000
 39
0.000000
  0
VERTEX
  8
BG_DIMENSION
 10
91.842800
 20
29.210700
 40
0.000000
 41
0.000000
 42
0.000000
  0
VERTEX
  8
BG_DIMENSION
 10
91.842800
 20
50.999900
 40
0.000000
 41
0.000000
 42
0.000000
  0
SEQEND
  0
POLYLINE
  8
BG_DIMENSION
 66
1
 70
1
 40
0.000000
 41
0.000000
 39
0.000000
  0
VERTEX
  8
BG_DIMENSION
 10
91.217800
 20
8.000000
 40
0.000000
 41
0.000000
 42
0.000000
  0
VERTEX
  8
BG_DIMENSION
 10
91.842800
 20
4.000000
 40
0.000000
 41
0.000000
 42
0.000000
  0
VERTEX
  8
BG_DIMENSION
 10
92.467800
 20
8.000000
 40
0.000000
 41
0.000000
 42
0.000000
  0
SEQEND
  0
POLYLINE
  8
BG_DIMENSION
 66
1
 70
0
 40
0.000000
 41
0.000000
 39
0.000000
  0
VERTEX
  8
BG_DIMENSION
 10
91.842800
 20
29.210700
 40
0.000000
 41
0.000000
 42
0.000000
  0
VERTEX
  8
BG_DIMENSION
 10
91.842800
 20
4.000000
 40
0.000000
 41
0.000000
 42
0.000000
  0
SEQEND
  0
POLYLINE
  8
BG_DIMENSION
 66
1
 70
0
 40
0.000000
 41
0.000000
 39
0.000000
  0
VERTEX
  8
BG_DIMENSION
 10
73.499800
 20
4.000000
 40
0.000000
 41
0.000000
 42
0.000000
  0
VERTEX
  8
BG_DIMENSION
 10
94.342800
 20
4.000000
 40
0.000000
 41
0.000000
 42
0.000000
  0
SEQEND
  0
POLYLINE
  8
BG_DIMENSION
 66
1
 70
0
 40
0.000000
 41
0.000000
 39
0.000000
  0
VERTEX
  8
BG_DIMENSION
 10
73.499800
 20
50.999900
 40
0.000000
 41
0.000000
 42
0.000000
  0
VERTEX
  8
BG_DIMENSION
 10
94.342800
 20
50.999900
 40
0.000000
 41
0.000000
 42
0.000000
  0
SEQEND
  0
TEXT
  8
BG_DIMENSION
 10
90.255300
 20
26.454800
 11
0.000000
 21
0.000000
 40
3.175000
 41
0.992000
 50
90.000000
  7
STANDARD
 71
0
 72
0
  1
47
 73
0
  0
POLYLINE
  8
BG_DIMENSION
 66
1
 70
1
 40
0.000000
 41
0.000000
 39
0.000000
  0
VERTEX
  8
BG_DIMENSION
 10
100.090500
 20
50.999900
 40
0.000000
 41
0.000000
 42
0.000000
  0
VERTEX
  8
BG_DIMENSION
 10
99.465500
 20
54.999900
 40
0.000000
 41
0.000000
 42
0.000000
  0
VERTEX
  8
BG_DIMENSION
 10
98.840500
 20
50.999900
 40
0.000000
 41
0.000000
 42
0.000000
  0
SEQEND
  0
POLYLINE
  8
BG_DIMENSION
 66
1
 70
0
 40
0.000000
 41
0.000000
 39
0.000000
  0
VERTEX
  8
BG_DIMENSION
 10
99.465500
 20
29.210700
 40
0.000000
 41
0.000000
 42
0.000000
  0
VERTEX
  8
BG_DIMENSION
 10
99.465500
 20
54.999900
 40
0.000000
 41
0.000000
 42
0.000000
  0
SEQEND
  0
POLYLINE
  8
BG_DIMENSION
 66
1
 70
1
 40
0.000000
 41
0.000000
 39
0.000000
  0
VERTEX
  8
BG_DIMENSION
 10
98.840500
 20
4.000000
 40
0.000000
 41
0.000000
 42
0.000000
  0
VERTEX
  8
BG_DIMENSION
 10
99.465500
 20
0.000000
 40
0.000000
 41
0.000000
 42
0.000000
  0
VERTEX
  8
BG_DIMENSION
 10
100.090500
 20
4.000000
 40
0.000000
 41
0.000000
 42
0.000000
  0
SEQEND
  0
POLYLINE
  8
BG_DIMENSION
 66
1
 70
0
 40
0.000000
 41
0.000000
 39
0.000000
  0
VERTEX
  8
BG_DIMENSION
 10
99.465500
 20
29.210700
 40
0.000000
 41
0.000000
 42
0.000000
  0
VERTEX
  8
BG_DIMENSION
 10
99.465500
 20
0.000000
 40
0.000000
 41
0.000000
 42
0.000000
  0
SEQEND
  0
POLYLINE
  8
BG_DIMENSION
 66
1
 70
0
 40
0.000000
 41
0.000000
 39
0.000000
  0
VERTEX
  8
BG_DIMENSION
 10
76.499900
 20
0.000000
 40
0.000000
 41
0.000000
 42
0.000000
  0
VERTEX
  8
BG_DIMENSION
 10
101.965500
 20
0.000000
 40
0.000000
 41
0.000000
 42
0.000000
  0
SEQEND
  0
POLYLINE
  8
BG_DIMENSION
 66
1
 70
0
 40
0.000000
 41
0.000000
 39
0.000000
  0
VERTEX
  8
BG_DIMENSION
 10
76.499900
 20
54.999900
 40
0.000000
 41
0.000000
 42
0.000000
  0
VERTEX
  8
BG_DIMENSION
 10
101.965500
 20
54.999900
 40
0.000000
 41
0.000000
 42
0.000000
  0
SEQEND
  0
TEXT
  8
BG_DIMENSION
 10
97.878000
 20
26.454800
 11
0.000000
 21
0.000000
 40
3.175000
 41
0.992000
 50
90.000000
  7
STANDARD
 71
0
 72
0
  1
55
 73
0
  0
POLYLINE
  8
BG_DIMENSION
 66
1
 70
1
 40
0.000000
 41
0.000000
 39
0.000000
  0
VERTEX
  8
BG_DIMENSION
 10
69.999900
 20
65.782500
 40
0.000000
 41
0.000000
 42
0.000000
  0
VERTEX
  8
BG_DIMENSION
 10
73.999900
 20
66.407500
 40
0.000000
 41
0.000000
 42
0.000000
  0
VERTEX
  8
BG_DIMENSION
 10
69.999900
 20
67.032500
 40
0.000000
 41
0.000000
 42
0.000000
  0
SEQEND
  0
POLYLINE
  8
BG_DIMENSION
 66
1
 70
0
 40
0.000000
 41
0.000000
 39
0.000000
  0
VERTEX
  8
BG_DIMENSION
 10
35.995000
 20
66.407500
 40
0.000000
 41
0.000000
 42
0.000000
  0
VERTEX
  8
BG_DIMENSION
 10
73.999900
 20
66.407500
 40
0.000000
 41
0.000000
 42
0.000000
  0
SEQEND
  0
POLYLINE
  8
BG_DIMENSION
 66
1
 70
1
 40
0.000000
 41
0.000000
 39
0.000000
  0
VERTEX
  8
BG_DIMENSION
 10
3.997100
 20
67.032500
 40
0.000000
 41
0.000000
 42
0.000000
  0
VERTEX
  8
BG_DIMENSION
 10
-0.002900
 20
66.407500
 40
0.000000
 41
0.000000
 42
0.000000
  0
VERTEX
  8
BG_DIMENSION
 10
3.997100
 20
65.782500
 40
0.000000
 41
0.000000
 42
0.000000
  0
SEQEND
  0
POLYLINE
  8
BG_DIMENSION
 66
1
 70
0
 40
0.000000
 41
0.000000
 39
0.000000
  0
VERTEX
  8
BG_DIMENSION
 10
35.995000
 20
66.407500
 40
0.000000
 41
0.000000
 42
0.000000
  0
VERTEX
  8
BG_DIMENSION
 10
-0.002900
 20
66.407500
 40
0.000000
 41
0.000000
 42
0.000000
  0
SEQEND
  0
POLYLINE
  8
BG_DIMENSION
 66
1
 70
0
 40
0.000000
 41
0.000000
 39
0.000000
  0
VERTEX
  8
BG_DIMENSION
 10
73.999900
 20
57.499900
 40
0.000000
 41
0.000000
 42
0.000000
  0
VERTEX
  8
BG_DIMENSION
 10
73.999900
 20
68.907500
 40
0.000000
 41
0.000000
 42
0.000000
  0
SEQEND
  0
POLYLINE
  8
BG_DIMENSION
 66
1
 70
0
 40
0.000000
 41
0.000000
 39
0.000000
  0
VERTEX
  8
BG_DIMENSION
 10
-0.002900
 20
59.015000
 40
0.000000
 41
0.000000
 42
0.000000
  0
VERTEX
  8
BG_DIMENSION
 10
-0.002900
 20
68.907500
 40
0.000000
 41
0.000000
 42
0.000000
  0
SEQEND
  0
TEXT
  8
BG_DIMENSION
 10
33.239100
 20
67.995000
 11
0.000000
 21
0.000000
 40
3.175000
 41
0.992000
 50
0.000000
  7
STANDARD
 71
0
 72
0
  1
74
 73
0
  0
CIRCLE
  8
PIN_TOP
 10
25.038000
 20
14.323100
 40
0.139700
  0
CIRCLE
  8
PIN_TOP
 10
25.038000
 20
13.323100
 40
0.139700
  0
CIRCLE
  8
PIN_TOP
 10
25.038000
 20
11.822900
 40
0.139700
  0
CIRCLE
  8
PIN_TOP
 10
25.038000
 20
10.822900
 40
0.139700
  0
CIRCLE
  8
PIN_TOP
 10
24.537900
 20
15.323100
 40
0.139700
  0
CIRCLE
  8
PIN_TOP
 10
23.537900
 20
15.822900
 40
0.139700
  0
CIRCLE
  8
PIN_TOP
 10
23.537900
 20
9.323100
 40
0.139700
  0
CIRCLE
  8
PIN_TOP
 10
21.537900
 20
15.822900
 40
0.139700
  0
CIRCLE
  8
PIN_TOP
 10
21.537900
 20
15.323100
 40
0.139700
  0
CIRCLE
  8
PIN_TOP
 10
21.537900
 20
14.822900
 40
0.139700
  0
CIRCLE
  8
PIN_TOP
 10
21.537900
 20
14.323100
 40
0.139700
  0
CIRCLE
  8
PIN_TOP
 10
21.537900
 20
13.822900
 40
0.139700
  0
CIRCLE
  8
PIN_TOP
 10
21.537900
 20
13.323100
 40
0.139700
  0
CIRCLE
  8
PIN_TOP
 10
21.537900
 20
12.822900
 40
0.139700
  0
CIRCLE
  8
PIN_TOP
 10
21.537900
 20
12.323100
 40
0.139700
  0
CIRCLE
  8
PIN_TOP
 10
21.537900
 20
11.822900
 40
0.139700
  0
CIRCLE
  8
PIN_TOP
 10
21.537900
 20
11.323100
 40
0.139700
  0
CIRCLE
  8
PIN_TOP
 10
21.537900
 20
10.822900
 40
0.139700
  0
CIRCLE
  8
PIN_TOP
 10
21.537900
 20
10.323100
 40
0.139700
  0
CIRCLE
  8
PIN_TOP
 10
21.537900
 20
9.822900
 40
0.139700
  0
CIRCLE
  8
PIN_TOP
 10
21.537900
 20
9.323100
 40
0.139700
  0
CIRCLE
  8
PIN_TOP
 10
21.038100
 20
15.822900
 40
0.139700
  0
CIRCLE
  8
PIN_TOP
 10
21.038100
 20
15.323100
 40
0.139700
  0
CIRCLE
  8
PIN_TOP
 10
21.038100
 20
14.822900
 40
0.139700
  0
CIRCLE
  8
PIN_TOP
 10
21.038100
 20
14.323100
 40
0.139700
  0
CIRCLE
  8
PIN_TOP
 10
21.038100
 20
13.822900
 40
0.139700
  0
CIRCLE
  8
PIN_TOP
 10
21.038100
 20
13.323100
 40
0.139700
  0
CIRCLE
  8
PIN_TOP
 10
21.038100
 20
12.822900
 40
0.139700
  0
CIRCLE
  8
PIN_TOP
 10
21.038100
 20
12.323100
 40
0.139700
  0
CIRCLE
  8
PIN_TOP
 10
21.038100
 20
11.822900
 40
0.139700
  0
CIRCLE
  8
PIN_TOP
 10
21.038100
 20
11.323100
 40
0.139700
  0
CIRCLE
  8
PIN_TOP
 10
21.038100
 20
10.822900
 40
0.139700
  0
CIRCLE
  8
PIN_TOP
 10
21.038100
 20
10.323100
 40
0.139700
  0
CIRCLE
  8
PIN_TOP
 10
21.038100
 20
9.822900
 40
0.139700
  0
CIRCLE
  8
PIN_TOP
 10
21.038100
 20
9.323100
 40
0.139700
  0
CIRCLE
  8
PIN_TOP
 10
20.537900
 20
15.822900
 40
0.139700
  0
CIRCLE
  8
PIN_TOP
 10
20.537900
 20
15.323100
 40
0.139700
  0
CIRCLE
  8
PIN_TOP
 10
20.537900
 20
14.822900
 40
0.139700
  0
CIRCLE
  8
PIN_TOP
 10
20.537900
 20
14.323100
 40
0.139700
  0
CIRCLE
  8
PIN_TOP
 10
20.537900
 20
13.822900
 40
0.139700
  0
CIRCLE
  8
PIN_TOP
 10
20.537900
 20
13.323100
 40
0.139700
  0
CIRCLE
  8
PIN_TOP
 10
20.537900
 20
12.822900
 40
0.139700
  0
CIRCLE
  8
PIN_TOP
 10
20.537900
 20
12.323100
 40
0.139700
  0
CIRCLE
  8
PIN_TOP
 10
20.537900
 20
11.822900
 40
0.139700
  0
CIRCLE
  8
PIN_TOP
 10
20.537900
 20
11.323100
 40
0.139700
  0
CIRCLE
  8
PIN_TOP
 10
20.537900
 20
10.822900
 40
0.139700
  0
CIRCLE
  8
PIN_TOP
 10
20.537900
 20
10.323100
 40
0.139700
  0
CIRCLE
  8
PIN_TOP
 10
20.537900
 20
9.822900
 40
0.139700
  0
CIRCLE
  8
PIN_TOP
 10
20.537900
 20
9.323100
 40
0.139700
  0
CIRCLE
  8
PIN_TOP
 10
20.038100
 20
15.822900
 40
0.139700
  0
CIRCLE
  8
PIN_TOP
 10
20.038100
 20
15.323100
 40
0.139700
  0
CIRCLE
  8
PIN_TOP
 10
20.038100
 20
14.822900
 40
0.139700
  0
CIRCLE
  8
PIN_TOP
 10
20.038100
 20
14.323100
 40
0.139700
  0
CIRCLE
  8
PIN_TOP
 10
20.038100
 20
10.323100
 40
0.139700
  0
CIRCLE
  8
PIN_TOP
 10
20.038100
 20
9.822900
 40
0.139700
  0
CIRCLE
  8
PIN_TOP
 10
20.038100
 20
9.323100
 40
0.139700
  0
CIRCLE
  8
PIN_TOP
 10
19.537900
 20
15.822900
 40
0.139700
  0
CIRCLE
  8
PIN_TOP
 10
19.537900
 20
15.323100
 40
0.139700
  0
CIRCLE
  8
PIN_TOP
 10
19.537900
 20
14.822900
 40
0.139700
  0
CIRCLE
  8
PIN_TOP
 10
19.537900
 20
13.822900
 40
0.139700
  0
CIRCLE
  8
PIN_TOP
 10
19.537900
 20
13.323100
 40
0.139700
  0
CIRCLE
  8
PIN_TOP
 10
19.537900
 20
12.822900
 40
0.139700
  0
CIRCLE
  8
PIN_TOP
 10
19.537900
 20
12.323100
 40
0.139700
  0
CIRCLE
  8
PIN_TOP
 10
19.537900
 20
11.822900
 40
0.139700
  0
CIRCLE
  8
PIN_TOP
 10
19.537900
 20
11.323100
 40
0.139700
  0
CIRCLE
  8
PIN_TOP
 10
19.537900
 20
10.323100
 40
0.139700
  0
CIRCLE
  8
PIN_TOP
 10
19.537900
 20
9.822900
 40
0.139700
  0
CIRCLE
  8
PIN_TOP
 10
19.537900
 20
9.323100
 40
0.139700
  0
CIRCLE
  8
PIN_TOP
 10
19.038100
 20
15.822900
 40
0.139700
  0
CIRCLE
  8
PIN_TOP
 10
19.038100
 20
15.323100
 40
0.139700
  0
CIRCLE
  8
PIN_TOP
 10
19.038100
 20
14.822900
 40
0.139700
  0
CIRCLE
  8
PIN_TOP
 10
19.038100
 20
13.822900
 40
0.139700
  0
CIRCLE
  8
PIN_TOP
 10
19.038100
 20
11.323100
 40
0.139700
  0
CIRCLE
  8
PIN_TOP
 10
19.038100
 20
10.323100
 40
0.139700
  0
CIRCLE
  8
PIN_TOP
 10
19.038100
 20
9.822900
 40
0.139700
  0
CIRCLE
  8
PIN_TOP
 10
19.038100
 20
9.323100
 40
0.139700
  0
CIRCLE
  8
PIN_TOP
 10
18.537900
 20
15.822900
 40
0.139700
  0
CIRCLE
  8
PIN_TOP
 10
18.537900
 20
15.323100
 40
0.139700
  0
CIRCLE
  8
PIN_TOP
 10
18.537900
 20
14.822900
 40
0.139700
  0
CIRCLE
  8
PIN_TOP
 10
18.537900
 20
13.822900
 40
0.139700
  0
CIRCLE
  8
PIN_TOP
 10
18.537900
 20
11.323100
 40
0.139700
  0
CIRCLE
  8
PIN_TOP
 10
18.537900
 20
10.323100
 40
0.139700
  0
CIRCLE
  8
PIN_TOP
 10
18.537900
 20
9.822900
 40
0.139700
  0
CIRCLE
  8
PIN_TOP
 10
18.537900
 20
9.323100
 40
0.139700
  0
CIRCLE
  8
PIN_TOP
 10
18.038100
 20
15.822900
 40
0.139700
  0
CIRCLE
  8
PIN_TOP
 10
18.038100
 20
15.323100
 40
0.139700
  0
CIRCLE
  8
PIN_TOP
 10
18.038100
 20
14.822900
 40
0.139700
  0
CIRCLE
  8
PIN_TOP
 10
18.038100
 20
13.822900
 40
0.139700
  0
CIRCLE
  8
PIN_TOP
 10
18.038100
 20
11.323100
 40
0.139700
  0
CIRCLE
  8
PIN_TOP
 10
18.038100
 20
10.323100
 40
0.139700
  0
CIRCLE
  8
PIN_TOP
 10
18.038100
 20
9.822900
 40
0.139700
  0
CIRCLE
  8
PIN_TOP
 10
18.038100
 20
9.323100
 40
0.139700
  0
CIRCLE
  8
PIN_TOP
 10
17.537900
 20
15.822900
 40
0.139700
  0
CIRCLE
  8
PIN_TOP
 10
17.537900
 20
15.323100
 40
0.139700
  0
CIRCLE
  8
PIN_TOP
 10
17.537900
 20
14.822900
 40
0.139700
  0
CIRCLE
  8
PIN_TOP
 10
17.537900
 20
13.822900
 40
0.139700
  0
CIRCLE
  8
PIN_TOP
 10
17.537900
 20
11.323100
 40
0.139700
  0
CIRCLE
  8
PIN_TOP
 10
17.537900
 20
10.323100
 40
0.139700
  0
CIRCLE
  8
PIN_TOP
 10
17.537900
 20
9.822900
 40
0.139700
  0
CIRCLE
  8
PIN_TOP
 10
17.537900
 20
9.323100
 40
0.139700
  0
CIRCLE
  8
PIN_TOP
 10
17.038100
 20
15.822900
 40
0.139700
  0
CIRCLE
  8
PIN_TOP
 10
17.038100
 20
15.323100
 40
0.139700
  0
CIRCLE
  8
PIN_TOP
 10
17.038100
 20
14.822900
 40
0.139700
  0
CIRCLE
  8
PIN_TOP
 10
17.038100
 20
10.323100
 40
0.139700
  0
CIRCLE
  8
PIN_TOP
 10
17.038100
 20
9.822900
 40
0.139700
  0
CIRCLE
  8
PIN_TOP
 10
17.038100
 20
9.323100
 40
0.139700
  0
CIRCLE
  8
PIN_TOP
 10
16.537900
 20
15.822900
 40
0.139700
  0
CIRCLE
  8
PIN_TOP
 10
16.537900
 20
15.323100
 40
0.139700
  0
CIRCLE
  8
PIN_TOP
 10
16.537900
 20
14.822900
 40
0.139700
  0
CIRCLE
  8
PIN_TOP
 10
16.537900
 20
10.323100
 40
0.139700
  0
CIRCLE
  8
PIN_TOP
 10
16.537900
 20
9.822900
 40
0.139700
  0
CIRCLE
  8
PIN_TOP
 10
16.537900
 20
9.323100
 40
0.139700
  0
CIRCLE
  8
PIN_TOP
 10
16.038100
 20
15.822900
 40
0.139700
  0
CIRCLE
  8
PIN_TOP
 10
16.038100
 20
15.323100
 40
0.139700
  0
CIRCLE
  8
PIN_TOP
 10
16.038100
 20
14.822900
 40
0.139700
  0
CIRCLE
  8
PIN_TOP
 10
16.038100
 20
14.323100
 40
0.139700
  0
CIRCLE
  8
PIN_TOP
 10
16.038100
 20
13.822900
 40
0.139700
  0
CIRCLE
  8
PIN_TOP
 10
16.038100
 20
13.323100
 40
0.139700
  0
CIRCLE
  8
PIN_TOP
 10
16.038100
 20
12.822900
 40
0.139700
  0
CIRCLE
  8
PIN_TOP
 10
16.038100
 20
12.323100
 40
0.139700
  0
CIRCLE
  8
PIN_TOP
 10
16.038100
 20
11.822900
 40
0.139700
  0
CIRCLE
  8
PIN_TOP
 10
16.038100
 20
11.323100
 40
0.139700
  0
CIRCLE
  8
PIN_TOP
 10
16.038100
 20
10.822900
 40
0.139700
  0
CIRCLE
  8
PIN_TOP
 10
16.038100
 20
10.323100
 40
0.139700
  0
CIRCLE
  8
PIN_TOP
 10
16.038100
 20
9.822900
 40
0.139700
  0
CIRCLE
  8
PIN_TOP
 10
16.038100
 20
9.323100
 40
0.139700
  0
CIRCLE
  8
PIN_TOP
 10
15.537900
 20
15.822900
 40
0.139700
  0
CIRCLE
  8
PIN_TOP
 10
15.537900
 20
15.323100
 40
0.139700
  0
CIRCLE
  8
PIN_TOP
 10
15.537900
 20
14.822900
 40
0.139700
  0
CIRCLE
  8
PIN_TOP
 10
15.537900
 20
14.323100
 40
0.139700
  0
CIRCLE
  8
PIN_TOP
 10
15.537900
 20
13.822900
 40
0.139700
  0
CIRCLE
  8
PIN_TOP
 10
15.537900
 20
13.323100
 40
0.139700
  0
CIRCLE
  8
PIN_TOP
 10
15.537900
 20
12.822900
 40
0.139700
  0
CIRCLE
  8
PIN_TOP
 10
15.537900
 20
12.323100
 40
0.139700
  0
CIRCLE
  8
PIN_TOP
 10
15.537900
 20
11.822900
 40
0.139700
  0
CIRCLE
  8
PIN_TOP
 10
15.537900
 20
11.323100
 40
0.139700
  0
CIRCLE
  8
PIN_TOP
 10
15.537900
 20
10.822900
 40
0.139700
  0
CIRCLE
  8
PIN_TOP
 10
15.537900
 20
10.323100
 40
0.139700
  0
CIRCLE
  8
PIN_TOP
 10
15.537900
 20
9.822900
 40
0.139700
  0
CIRCLE
  8
PIN_TOP
 10
15.537900
 20
9.323100
 40
0.139700
  0
CIRCLE
  8
PIN_TOP
 10
15.038100
 20
15.822900
 40
0.139700
  0
CIRCLE
  8
PIN_TOP
 10
15.038100
 20
15.323100
 40
0.139700
  0
CIRCLE
  8
PIN_TOP
 10
15.038100
 20
14.822900
 40
0.139700
  0
CIRCLE
  8
PIN_TOP
 10
15.038100
 20
14.323100
 40
0.139700
  0
CIRCLE
  8
PIN_TOP
 10
15.038100
 20
13.822900
 40
0.139700
  0
CIRCLE
  8
PIN_TOP
 10
15.038100
 20
13.323100
 40
0.139700
  0
CIRCLE
  8
PIN_TOP
 10
15.038100
 20
12.822900
 40
0.139700
  0
CIRCLE
  8
PIN_TOP
 10
15.038100
 20
12.323100
 40
0.139700
  0
CIRCLE
  8
PIN_TOP
 10
15.038100
 20
11.822900
 40
0.139700
  0
CIRCLE
  8
PIN_TOP
 10
15.038100
 20
11.323100
 40
0.139700
  0
CIRCLE
  8
PIN_TOP
 10
15.038100
 20
10.822900
 40
0.139700
  0
CIRCLE
  8
PIN_TOP
 10
15.038100
 20
10.323100
 40
0.139700
  0
CIRCLE
  8
PIN_TOP
 10
15.038100
 20
9.822900
 40
0.139700
  0
CIRCLE
  8
PIN_TOP
 10
15.038100
 20
9.323100
 40
0.139700
  0
CIRCLE
  8
PIN_TOP
 10
13.038100
 20
15.822900
 40
0.139700
  0
CIRCLE
  8
PIN_TOP
 10
13.038100
 20
9.323100
 40
0.139700
  0
CIRCLE
  8
PIN_TOP
 10
12.038100
 20
15.323100
 40
0.139700
  0
CIRCLE
  8
PIN_TOP
 10
12.038100
 20
9.822900
 40
0.139700
  0
CIRCLE
  8
PIN_TOP
 10
11.538000
 20
14.323100
 40
0.139700
  0
CIRCLE
  8
PIN_TOP
 10
11.538000
 20
13.323100
 40
0.139700
  0
CIRCLE
  8
PIN_TOP
 10
11.538000
 20
11.822900
 40
0.139700
  0
CIRCLE
  8
PIN_TOP
 10
11.538000
 20
10.822900
 40
0.139700
  0
CIRCLE
  8
PIN_TOP
 10
17.038100
 20
13.822900
 40
0.139700
  0
CIRCLE
  8
PIN_TOP
 10
17.038100
 20
13.323100
 40
0.139700
  0
CIRCLE
  8
PIN_TOP
 10
17.038100
 20
12.822900
 40
0.139700
  0
CIRCLE
  8
PIN_TOP
 10
17.038100
 20
12.323100
 40
0.139700
  0
CIRCLE
  8
PIN_TOP
 10
17.038100
 20
11.822900
 40
0.139700
  0
CIRCLE
  8
PIN_TOP
 10
17.038100
 20
11.323100
 40
0.139700
  0
CIRCLE
  8
PIN_TOP
 10
24.537900
 20
9.822900
 40
0.139700
  0
POLYLINE
  8
PG_SILKSCREEN_TOP
 66
1
 70
1
 40
0.000000
 41
0.000000
 39
0.000000
  0
VERTEX
  8
PG_SILKSCREEN_TOP
 10
9.288000
 20
18.573000
 40
0.000000
 41
0.000000
 42
0.000000
  0
VERTEX
  8
PG_SILKSCREEN_TOP
 10
9.288000
 20
6.573000
 40
0.000000
 41
0.000000
 42
0.000000
  0
VERTEX
  8
PG_SILKSCREEN_TOP
 10
27.288000
 20
6.573000
 40
0.000000
 41
0.000000
 42
0.000000
  0
VERTEX
  8
PG_SILKSCREEN_TOP
 10
27.288000
 20
18.573000
 40
0.000000
 41
0.000000
 42
0.000000
  0
SEQEND
  0
POLYLINE
  8
PG_SILKSCREEN_TOP
 66
1
 70
1
 40
0.000000
 41
0.000000
 39
0.000000
  0
VERTEX
  8
PG_SILKSCREEN_TOP
 10
27.288000
 20
18.573000
 40
0.000000
 41
0.000000
 42
0.000000
  0
VERTEX
  8
PG_SILKSCREEN_TOP
 10
27.988000
 20
18.573000
 40
0.000000
 41
0.000000
 42
0.000000
  0
VERTEX
  8
PG_SILKSCREEN_TOP
 10
27.288000
 20
19.273000
 40
0.000000
 41
0.000000
 42
0.000000
  0
SEQEND
  0
TEXT
  8
RD_SILKSCREEN_TOP
 10
22.745700
 20
7.577600
 11
0.000000
 21
0.000000
 40
1.270000
 41
1.020000
 50
0.000000
  7
STANDARD
 71
0
 72
0
  1
U2
 73
0
  0
POLYLINE
  8
PIN_TOP
 66
1
 70
1
 40
0.000000
 41
0.000000
 39
0.000000
  0
VERTEX
  8
PIN_TOP
 10
71.685700
 20
10.814300
 40
0.000000
 41
0.000000
 42
0.000000
  0
VERTEX
  8
PIN_TOP
 10
70.314100
 20
10.814300
 40
0.000000
 41
0.000000
 42
0.000000
  0
VERTEX
  8
PIN_TOP
 10
70.314100
 20
12.185900
 40
0.000000
 41
0.000000
 42
0.000000
  0
VERTEX
  8
PIN_TOP
 10
71.685700
 20
12.185900
 40
0.000000
 41
0.000000
 42
0.000000
  0
SEQEND
  0
POLYLINE
  8
PIN_IN1-LAYER3
 66
1
 70
1
 40
0.000000
 41
0.000000
 39
0.000000
  0
VERTEX
  8
PIN_IN1-LAYER3
 10
71.685700
 20
10.814300
 40
0.000000
 41
0.000000
 42
0.000000
  0
VERTEX
  8
PIN_IN1-LAYER3
 10
70.314100
 20
10.814300
 40
0.000000
 41
0.000000
 42
0.000000
  0
VERTEX
  8
PIN_IN1-LAYER3
 10
70.314100
 20
12.185900
 40
0.000000
 41
0.000000
 42
0.000000
  0
VERTEX
  8
PIN_IN1-LAYER3
 10
71.685700
 20
12.185900
 40
0.000000
 41
0.000000
 42
0.000000
  0
SEQEND
  0
POLYLINE
  8
PIN_IN2-LAYER4
 66
1
 70
1
 40
0.000000
 41
0.000000
 39
0.000000
  0
VERTEX
  8
PIN_IN2-LAYER4
 10
71.685700
 20
10.814300
 40
0.000000
 41
0.000000
 42
0.000000
  0
VERTEX
  8
PIN_IN2-LAYER4
 10
70.314100
 20
10.814300
 40
0.000000
 41
0.000000
 42
0.000000
  0
VERTEX
  8
PIN_IN2-LAYER4
 10
70.314100
 20
12.185900
 40
0.000000
 41
0.000000
 42
0.000000
  0
VERTEX
  8
PIN_IN2-LAYER4
 10
71.685700
 20
12.185900
 40
0.000000
 41
0.000000
 42
0.000000
  0
SEQEND
  0
POLYLINE
  8
PIN_IN3-LAYER6
 66
1
 70
1
 40
0.000000
 41
0.000000
 39
0.000000
  0
VERTEX
  8
PIN_IN3-LAYER6
 10
71.685700
 20
10.814300
 40
0.000000
 41
0.000000
 42
0.000000
  0
VERTEX
  8
PIN_IN3-LAYER6
 10
70.314100
 20
10.814300
 40
0.000000
 41
0.000000
 42
0.000000
  0
VERTEX
  8
PIN_IN3-LAYER6
 10
70.314100
 20
12.185900
 40
0.000000
 41
0.000000
 42
0.000000
  0
VERTEX
  8
PIN_IN3-LAYER6
 10
71.685700
 20
12.185900
 40
0.000000
 41
0.000000
 42
0.000000
  0
SEQEND
  0
POLYLINE
  8
PIN_BOTTOM
 66
1
 70
1
 40
0.000000
 41
0.000000
 39
0.000000
  0
VERTEX
  8
PIN_BOTTOM
 10
71.685700
 20
10.814300
 40
0.000000
 41
0.000000
 42
0.000000
  0
VERTEX
  8
PIN_BOTTOM
 10
70.314100
 20
10.814300
 40
0.000000
 41
0.000000
 42
0.000000
  0
VERTEX
  8
PIN_BOTTOM
 10
70.314100
 20
12.185900
 40
0.000000
 41
0.000000
 42
0.000000
  0
VERTEX
  8
PIN_BOTTOM
 10
71.685700
 20
12.185900
 40
0.000000
 41
0.000000
 42
0.000000
  0
SEQEND
  0
CIRCLE
  8
PIN_TOP
 10
70.999900
 20
13.500100
 40
0.685800
  0
CIRCLE
  8
PIN_IN1-LAYER3
 10
70.999900
 20
13.500100
 40
0.685800
  0
CIRCLE
  8
PIN_IN2-LAYER4
 10
70.999900
 20
13.500100
 40
0.685800
  0
CIRCLE
  8
PIN_IN3-LAYER6
 10
70.999900
 20
13.500100
 40
0.685800
  0
CIRCLE
  8
PIN_BOTTOM
 10
70.999900
 20
13.500100
 40
0.685800
  0
CIRCLE
  8
PIN_TOP
 10
68.999900
 20
11.500100
 40
0.685800
  0
CIRCLE
  8
PIN_IN1-LAYER3
 10
68.999900
 20
11.500100
 40
0.685800
  0
CIRCLE
  8
PIN_IN2-LAYER4
 10
68.999900
 20
11.500100
 40
0.685800
  0
CIRCLE
  8
PIN_IN3-LAYER6
 10
68.999900
 20
11.500100
 40
0.685800
  0
CIRCLE
  8
PIN_BOTTOM
 10
68.999900
 20
11.500100
 40
0.685800
  0
CIRCLE
  8
PIN_TOP
 10
68.999900
 20
13.500100
 40
0.685800
  0
CIRCLE
  8
PIN_IN1-LAYER3
 10
68.999900
 20
13.500100
 40
0.685800
  0
CIRCLE
  8
PIN_IN2-LAYER4
 10
68.999900
 20
13.500100
 40
0.685800
  0
CIRCLE
  8
PIN_IN3-LAYER6
 10
68.999900
 20
13.500100
 40
0.685800
  0
CIRCLE
  8
PIN_BOTTOM
 10
68.999900
 20
13.500100
 40
0.685800
  0
CIRCLE
  8
PIN_TOP
 10
68.999900
 20
15.500100
 40
0.685800
  0
CIRCLE
  8
PIN_IN1-LAYER3
 10
68.999900
 20
15.500100
 40
0.685800
  0
CIRCLE
  8
PIN_IN2-LAYER4
 10
68.999900
 20
15.500100
 40
0.685800
  0
CIRCLE
  8
PIN_IN3-LAYER6
 10
68.999900
 20
15.500100
 40
0.685800
  0
CIRCLE
  8
PIN_BOTTOM
 10
68.999900
 20
15.500100
 40
0.685800
  0
CIRCLE
  8
PIN_TOP
 10
70.999900
 20
15.500100
 40
0.685800
  0
CIRCLE
  8
PIN_IN1-LAYER3
 10
70.999900
 20
15.500100
 40
0.685800
  0
CIRCLE
  8
PIN_IN2-LAYER4
 10
70.999900
 20
15.500100
 40
0.685800
  0
CIRCLE
  8
PIN_IN3-LAYER6
 10
70.999900
 20
15.500100
 40
0.685800
  0
CIRCLE
  8
PIN_BOTTOM
 10
70.999900
 20
15.500100
 40
0.685800
  0
CIRCLE
  8
PIN_TOP
 10
70.999900
 20
17.500100
 40
0.685800
  0
CIRCLE
  8
PIN_IN1-LAYER3
 10
70.999900
 20
17.500100
 40
0.685800
  0
CIRCLE
  8
PIN_IN2-LAYER4
 10
70.999900
 20
17.500100
 40
0.685800
  0
CIRCLE
  8
PIN_IN3-LAYER6
 10
70.999900
 20
17.500100
 40
0.685800
  0
CIRCLE
  8
PIN_BOTTOM
 10
70.999900
 20
17.500100
 40
0.685800
  0
CIRCLE
  8
PIN_TOP
 10
68.999900
 20
17.500100
 40
0.685800
  0
CIRCLE
  8
PIN_IN1-LAYER3
 10
68.999900
 20
17.500100
 40
0.685800
  0
CIRCLE
  8
PIN_IN2-LAYER4
 10
68.999900
 20
17.500100
 40
0.685800
  0
CIRCLE
  8
PIN_IN3-LAYER6
 10
68.999900
 20
17.500100
 40
0.685800
  0
CIRCLE
  8
PIN_BOTTOM
 10
68.999900
 20
17.500100
 40
0.685800
  0
CIRCLE
  8
PIN_TOP
 10
68.999900
 20
19.500100
 40
0.685800
  0
CIRCLE
  8
PIN_IN1-LAYER3
 10
68.999900
 20
19.500100
 40
0.685800
  0
CIRCLE
  8
PIN_IN2-LAYER4
 10
68.999900
 20
19.500100
 40
0.685800
  0
CIRCLE
  8
PIN_IN3-LAYER6
 10
68.999900
 20
19.500100
 40
0.685800
  0
CIRCLE
  8
PIN_BOTTOM
 10
68.999900
 20
19.500100
 40
0.685800
  0
CIRCLE
  8
PIN_TOP
 10
70.999900
 20
19.500100
 40
0.685800
  0
CIRCLE
  8
PIN_IN1-LAYER3
 10
70.999900
 20
19.500100
 40
0.685800
  0
CIRCLE
  8
PIN_IN2-LAYER4
 10
70.999900
 20
19.500100
 40
0.685800
  0
CIRCLE
  8
PIN_IN3-LAYER6
 10
70.999900
 20
19.500100
 40
0.685800
  0
CIRCLE
  8
PIN_BOTTOM
 10
70.999900
 20
19.500100
 40
0.685800
  0
CIRCLE
  8
PIN_TOP
 10
70.999900
 20
21.500100
 40
0.685800
  0
CIRCLE
  8
PIN_IN1-LAYER3
 10
70.999900
 20
21.500100
 40
0.685800
  0
CIRCLE
  8
PIN_IN2-LAYER4
 10
70.999900
 20
21.500100
 40
0.685800
  0
CIRCLE
  8
PIN_IN3-LAYER6
 10
70.999900
 20
21.500100
 40
0.685800
  0
CIRCLE
  8
PIN_BOTTOM
 10
70.999900
 20
21.500100
 40
0.685800
  0
CIRCLE
  8
PIN_TOP
 10
68.999900
 20
21.500100
 40
0.685800
  0
CIRCLE
  8
PIN_IN1-LAYER3
 10
68.999900
 20
21.500100
 40
0.685800
  0
CIRCLE
  8
PIN_IN2-LAYER4
 10
68.999900
 20
21.500100
 40
0.685800
  0
CIRCLE
  8
PIN_IN3-LAYER6
 10
68.999900
 20
21.500100
 40
0.685800
  0
CIRCLE
  8
PIN_BOTTOM
 10
68.999900
 20
21.500100
 40
0.685800
  0
CIRCLE
  8
PIN_TOP
 10
70.999900
 20
23.500100
 40
0.685800
  0
CIRCLE
  8
PIN_IN1-LAYER3
 10
70.999900
 20
23.500100
 40
0.685800
  0
CIRCLE
  8
PIN_IN2-LAYER4
 10
70.999900
 20
23.500100
 40
0.685800
  0
CIRCLE
  8
PIN_IN3-LAYER6
 10
70.999900
 20
23.500100
 40
0.685800
  0
CIRCLE
  8
PIN_BOTTOM
 10
70.999900
 20
23.500100
 40
0.685800
  0
CIRCLE
  8
PIN_TOP
 10
68.999900
 20
23.500100
 40
0.685800
  0
CIRCLE
  8
PIN_IN1-LAYER3
 10
68.999900
 20
23.500100
 40
0.685800
  0
CIRCLE
  8
PIN_IN2-LAYER4
 10
68.999900
 20
23.500100
 40
0.685800
  0
CIRCLE
  8
PIN_IN3-LAYER6
 10
68.999900
 20
23.500100
 40
0.685800
  0
CIRCLE
  8
PIN_BOTTOM
 10
68.999900
 20
23.500100
 40
0.685800
  0
CIRCLE
  8
PIN_TOP
 10
70.999900
 20
25.500100
 40
0.685800
  0
CIRCLE
  8
PIN_IN1-LAYER3
 10
70.999900
 20
25.500100
 40
0.685800
  0
CIRCLE
  8
PIN_IN2-LAYER4
 10
70.999900
 20
25.500100
 40
0.685800
  0
CIRCLE
  8
PIN_IN3-LAYER6
 10
70.999900
 20
25.500100
 40
0.685800
  0
CIRCLE
  8
PIN_BOTTOM
 10
70.999900
 20
25.500100
 40
0.685800
  0
CIRCLE
  8
PIN_TOP
 10
68.999900
 20
25.500100
 40
0.685800
  0
CIRCLE
  8
PIN_IN1-LAYER3
 10
68.999900
 20
25.500100
 40
0.685800
  0
CIRCLE
  8
PIN_IN2-LAYER4
 10
68.999900
 20
25.500100
 40
0.685800
  0
CIRCLE
  8
PIN_IN3-LAYER6
 10
68.999900
 20
25.500100
 40
0.685800
  0
CIRCLE
  8
PIN_BOTTOM
 10
68.999900
 20
25.500100
 40
0.685800
  0
CIRCLE
  8
PIN_TOP
 10
70.999900
 20
27.500100
 40
0.685800
  0
CIRCLE
  8
PIN_IN1-LAYER3
 10
70.999900
 20
27.500100
 40
0.685800
  0
CIRCLE
  8
PIN_IN2-LAYER4
 10
70.999900
 20
27.500100
 40
0.685800
  0
CIRCLE
  8
PIN_IN3-LAYER6
 10
70.999900
 20
27.500100
 40
0.685800
  0
CIRCLE
  8
PIN_BOTTOM
 10
70.999900
 20
27.500100
 40
0.685800
  0
CIRCLE
  8
PIN_TOP
 10
68.999900
 20
27.500100
 40
0.685800
  0
CIRCLE
  8
PIN_IN1-LAYER3
 10
68.999900
 20
27.500100
 40
0.685800
  0
CIRCLE
  8
PIN_IN2-LAYER4
 10
68.999900
 20
27.500100
 40
0.685800
  0
CIRCLE
  8
PIN_IN3-LAYER6
 10
68.999900
 20
27.500100
 40
0.685800
  0
CIRCLE
  8
PIN_BOTTOM
 10
68.999900
 20
27.500100
 40
0.685800
  0
CIRCLE
  8
PIN_TOP
 10
70.999900
 20
29.500100
 40
0.685800
  0
CIRCLE
  8
PIN_IN1-LAYER3
 10
70.999900
 20
29.500100
 40
0.685800
  0
CIRCLE
  8
PIN_IN2-LAYER4
 10
70.999900
 20
29.500100
 40
0.685800
  0
CIRCLE
  8
PIN_IN3-LAYER6
 10
70.999900
 20
29.500100
 40
0.685800
  0
CIRCLE
  8
PIN_BOTTOM
 10
70.999900
 20
29.500100
 40
0.685800
  0
CIRCLE
  8
PIN_TOP
 10
68.999900
 20
29.500100
 40
0.685800
  0
CIRCLE
  8
PIN_IN1-LAYER3
 10
68.999900
 20
29.500100
 40
0.685800
  0
CIRCLE
  8
PIN_IN2-LAYER4
 10
68.999900
 20
29.500100
 40
0.685800
  0
CIRCLE
  8
PIN_IN3-LAYER6
 10
68.999900
 20
29.500100
 40
0.685800
  0
CIRCLE
  8
PIN_BOTTOM
 10
68.999900
 20
29.500100
 40
0.685800
  0
CIRCLE
  8
PIN_TOP
 10
70.999900
 20
31.500100
 40
0.685800
  0
CIRCLE
  8
PIN_IN1-LAYER3
 10
70.999900
 20
31.500100
 40
0.685800
  0
CIRCLE
  8
PIN_IN2-LAYER4
 10
70.999900
 20
31.500100
 40
0.685800
  0
CIRCLE
  8
PIN_IN3-LAYER6
 10
70.999900
 20
31.500100
 40
0.685800
  0
CIRCLE
  8
PIN_BOTTOM
 10
70.999900
 20
31.500100
 40
0.685800
  0
CIRCLE
  8
PIN_TOP
 10
68.999900
 20
31.500100
 40
0.685800
  0
CIRCLE
  8
PIN_IN1-LAYER3
 10
68.999900
 20
31.500100
 40
0.685800
  0
CIRCLE
  8
PIN_IN2-LAYER4
 10
68.999900
 20
31.500100
 40
0.685800
  0
CIRCLE
  8
PIN_IN3-LAYER6
 10
68.999900
 20
31.500100
 40
0.685800
  0
CIRCLE
  8
PIN_BOTTOM
 10
68.999900
 20
31.500100
 40
0.685800
  0
CIRCLE
  8
PIN_TOP
 10
70.999900
 20
33.500100
 40
0.685800
  0
CIRCLE
  8
PIN_IN1-LAYER3
 10
70.999900
 20
33.500100
 40
0.685800
  0
CIRCLE
  8
PIN_IN2-LAYER4
 10
70.999900
 20
33.500100
 40
0.685800
  0
CIRCLE
  8
PIN_IN3-LAYER6
 10
70.999900
 20
33.500100
 40
0.685800
  0
CIRCLE
  8
PIN_BOTTOM
 10
70.999900
 20
33.500100
 40
0.685800
  0
CIRCLE
  8
PIN_TOP
 10
68.999900
 20
33.500100
 40
0.685800
  0
CIRCLE
  8
PIN_IN1-LAYER3
 10
68.999900
 20
33.500100
 40
0.685800
  0
CIRCLE
  8
PIN_IN2-LAYER4
 10
68.999900
 20
33.500100
 40
0.685800
  0
CIRCLE
  8
PIN_IN3-LAYER6
 10
68.999900
 20
33.500100
 40
0.685800
  0
CIRCLE
  8
PIN_BOTTOM
 10
68.999900
 20
33.500100
 40
0.685800
  0
CIRCLE
  8
PIN_TOP
 10
70.999900
 20
35.500100
 40
0.685800
  0
CIRCLE
  8
PIN_IN1-LAYER3
 10
70.999900
 20
35.500100
 40
0.685800
  0
CIRCLE
  8
PIN_IN2-LAYER4
 10
70.999900
 20
35.500100
 40
0.685800
  0
CIRCLE
  8
PIN_IN3-LAYER6
 10
70.999900
 20
35.500100
 40
0.685800
  0
CIRCLE
  8
PIN_BOTTOM
 10
70.999900
 20
35.500100
 40
0.685800
  0
CIRCLE
  8
PIN_TOP
 10
68.999900
 20
35.500100
 40
0.685800
  0
CIRCLE
  8
PIN_IN1-LAYER3
 10
68.999900
 20
35.500100
 40
0.685800
  0
CIRCLE
  8
PIN_IN2-LAYER4
 10
68.999900
 20
35.500100
 40
0.685800
  0
CIRCLE
  8
PIN_IN3-LAYER6
 10
68.999900
 20
35.500100
 40
0.685800
  0
CIRCLE
  8
PIN_BOTTOM
 10
68.999900
 20
35.500100
 40
0.685800
  0
CIRCLE
  8
PIN_TOP
 10
70.999900
 20
37.500100
 40
0.685800
  0
CIRCLE
  8
PIN_IN1-LAYER3
 10
70.999900
 20
37.500100
 40
0.685800
  0
CIRCLE
  8
PIN_IN2-LAYER4
 10
70.999900
 20
37.500100
 40
0.685800
  0
CIRCLE
  8
PIN_IN3-LAYER6
 10
70.999900
 20
37.500100
 40
0.685800
  0
CIRCLE
  8
PIN_BOTTOM
 10
70.999900
 20
37.500100
 40
0.685800
  0
CIRCLE
  8
PIN_TOP
 10
68.999900
 20
37.500100
 40
0.685800
  0
CIRCLE
  8
PIN_IN1-LAYER3
 10
68.999900
 20
37.500100
 40
0.685800
  0
CIRCLE
  8
PIN_IN2-LAYER4
 10
68.999900
 20
37.500100
 40
0.685800
  0
CIRCLE
  8
PIN_IN3-LAYER6
 10
68.999900
 20
37.500100
 40
0.685800
  0
CIRCLE
  8
PIN_BOTTOM
 10
68.999900
 20
37.500100
 40
0.685800
  0
CIRCLE
  8
PIN_TOP
 10
70.999900
 20
39.500100
 40
0.685800
  0
CIRCLE
  8
PIN_IN1-LAYER3
 10
70.999900
 20
39.500100
 40
0.685800
  0
CIRCLE
  8
PIN_IN2-LAYER4
 10
70.999900
 20
39.500100
 40
0.685800
  0
CIRCLE
  8
PIN_IN3-LAYER6
 10
70.999900
 20
39.500100
 40
0.685800
  0
CIRCLE
  8
PIN_BOTTOM
 10
70.999900
 20
39.500100
 40
0.685800
  0
CIRCLE
  8
PIN_TOP
 10
68.999900
 20
39.500100
 40
0.685800
  0
CIRCLE
  8
PIN_IN1-LAYER3
 10
68.999900
 20
39.500100
 40
0.685800
  0
CIRCLE
  8
PIN_IN2-LAYER4
 10
68.999900
 20
39.500100
 40
0.685800
  0
CIRCLE
  8
PIN_IN3-LAYER6
 10
68.999900
 20
39.500100
 40
0.685800
  0
CIRCLE
  8
PIN_BOTTOM
 10
68.999900
 20
39.500100
 40
0.685800
  0
CIRCLE
  8
PIN_TOP
 10
70.999900
 20
41.500100
 40
0.685800
  0
CIRCLE
  8
PIN_IN1-LAYER3
 10
70.999900
 20
41.500100
 40
0.685800
  0
CIRCLE
  8
PIN_IN2-LAYER4
 10
70.999900
 20
41.500100
 40
0.685800
  0
CIRCLE
  8
PIN_IN3-LAYER6
 10
70.999900
 20
41.500100
 40
0.685800
  0
CIRCLE
  8
PIN_BOTTOM
 10
70.999900
 20
41.500100
 40
0.685800
  0
CIRCLE
  8
PIN_TOP
 10
68.999900
 20
41.500100
 40
0.685800
  0
CIRCLE
  8
PIN_IN1-LAYER3
 10
68.999900
 20
41.500100
 40
0.685800
  0
CIRCLE
  8
PIN_IN2-LAYER4
 10
68.999900
 20
41.500100
 40
0.685800
  0
CIRCLE
  8
PIN_IN3-LAYER6
 10
68.999900
 20
41.500100
 40
0.685800
  0
CIRCLE
  8
PIN_BOTTOM
 10
68.999900
 20
41.500100
 40
0.685800
  0
CIRCLE
  8
PIN_TOP
 10
70.999900
 20
43.500100
 40
0.685800
  0
CIRCLE
  8
PIN_IN1-LAYER3
 10
70.999900
 20
43.500100
 40
0.685800
  0
CIRCLE
  8
PIN_IN2-LAYER4
 10
70.999900
 20
43.500100
 40
0.685800
  0
CIRCLE
  8
PIN_IN3-LAYER6
 10
70.999900
 20
43.500100
 40
0.685800
  0
CIRCLE
  8
PIN_BOTTOM
 10
70.999900
 20
43.500100
 40
0.685800
  0
CIRCLE
  8
PIN_TOP
 10
68.999900
 20
43.500100
 40
0.685800
  0
CIRCLE
  8
PIN_IN1-LAYER3
 10
68.999900
 20
43.500100
 40
0.685800
  0
CIRCLE
  8
PIN_IN2-LAYER4
 10
68.999900
 20
43.500100
 40
0.685800
  0
CIRCLE
  8
PIN_IN3-LAYER6
 10
68.999900
 20
43.500100
 40
0.685800
  0
CIRCLE
  8
PIN_BOTTOM
 10
68.999900
 20
43.500100
 40
0.685800
  0
POLYLINE
  8
PG_SILKSCREEN_TOP
 66
1
 70
0
 40
0.000000
 41
0.000000
 39
0.000000
  0
VERTEX
  8
PG_SILKSCREEN_TOP
 10
67.459900
 20
10.500100
 40
0.203200
 41
0.203200
 42
0.000000
  0
VERTEX
  8
PG_SILKSCREEN_TOP
 10
67.459900
 20
44.800000
 40
0.203200
 41
0.203200
 42
0.000000
  0
VERTEX
  8
PG_SILKSCREEN_TOP
 10
72.539900
 20
44.800000
 40
0.203200
 41
0.203200
 42
0.000000
  0
VERTEX
  8
PG_SILKSCREEN_TOP
 10
72.539900
 20
10.500100
 40
0.203200
 41
0.203200
 42
0.000000
  0
SEQEND
  0
POLYLINE
  8
PG_SILKSCREEN_TOP
 66
1
 70
0
 40
0.000000
 41
0.000000
 39
0.000000
  0
VERTEX
  8
PG_SILKSCREEN_TOP
 10
67.459900
 20
10.500100
 40
0.203200
 41
0.203200
 42
0.000000
  0
VERTEX
  8
PG_SILKSCREEN_TOP
 10
67.459900
 20
9.700000
 40
0.203200
 41
0.203200
 42
0.000000
  0
VERTEX
  8
PG_SILKSCREEN_TOP
 10
72.539900
 20
9.700000
 40
0.203200
 41
0.203200
 42
0.000000
  0
VERTEX
  8
PG_SILKSCREEN_TOP
 10
72.539900
 20
10.500100
 40
0.203200
 41
0.203200
 42
0.000000
  0
SEQEND
  0
POLYLINE
  8
PG_SILKSCREEN_TOP
 66
1
 70
0
 40
0.000000
 41
0.000000
 39
0.000000
  0
VERTEX
  8
PG_SILKSCREEN_TOP
 10
69.999900
 20
28.500100
 40
0.150100
 41
0.150100
 42
0.000000
  0
VERTEX
  8
PG_SILKSCREEN_TOP
 10
69.999900
 20
27.500100
 40
0.150100
 41
0.150100
 42
0.000000
  0
VERTEX
  8
PG_SILKSCREEN_TOP
 10
68.999900
 20
27.500100
 40
0.150100
 41
0.150100
 42
0.000000
  0
SEQEND
  0
POLYLINE
  8
PG_SILKSCREEN_TOP
 66
1
 70
0
 40
0.000000
 41
0.000000
 39
0.000000
  0
VERTEX
  8
PG_SILKSCREEN_TOP
 10
69.999900
 20
26.500100
 40
0.150100
 41
0.150100
 42
0.000000
  0
VERTEX
  8
PG_SILKSCREEN_TOP
 10
69.999900
 20
27.500100
 40
0.150100
 41
0.150100
 42
0.000000
  0
VERTEX
  8
PG_SILKSCREEN_TOP
 10
70.999900
 20
27.500100
 40
0.150100
 41
0.150100
 42
0.000000
  0
SEQEND
  0
POLYLINE
  8
PG_SILKSCREEN_TOP
 66
1
 70
1
 40
0.000000
 41
0.000000
 39
0.000000
  0
VERTEX
  8
PG_SILKSCREEN_TOP
 10
67.459900
 20
9.700000
 40
0.000000
 41
0.000000
 42
0.000000
  0
VERTEX
  8
PG_SILKSCREEN_TOP
 10
67.459900
 20
10.200100
 40
0.000000
 41
0.000000
 42
0.000000
  0
VERTEX
  8
PG_SILKSCREEN_TOP
 10
72.539900
 20
10.200100
 40
0.000000
 41
0.000000
 42
0.000000
  0
VERTEX
  8
PG_SILKSCREEN_TOP
 10
72.539900
 20
9.700000
 40
0.000000
 41
0.000000
 42
0.000000
  0
SEQEND
  0
POLYLINE
  8
PG_SILKSCREEN_TOP
 66
1
 70
1
 40
0.000000
 41
0.000000
 39
0.000000
  0
VERTEX
  8
PG_SILKSCREEN_TOP
 10
72.777900
 20
11.500100
 40
0.000000
 41
0.000000
 42
0.000000
  0
VERTEX
  8
PG_SILKSCREEN_TOP
 10
73.793900
 20
10.484100
 40
0.000000
 41
0.000000
 42
0.000000
  0
VERTEX
  8
PG_SILKSCREEN_TOP
 10
73.793900
 20
12.516100
 40
0.000000
 41
0.000000
 42
0.000000
  0
SEQEND
  0
TEXT
  8
RD_SILKSCREEN_TOP
 10
71.712800
 20
8.407400
 11
0.000000
 21
0.000000
 40
0.635000
 41
0.880000
 50
90.000000
  7
STANDARD
 71
0
 72
0
  1
P4
 73
0
  0
TEXT
  8
PG_SILKSCREEN_TOP
 10
66.867233
 20
11.578100
 11
67.078900
 21
11.578100
 40
0.635000
 41
0.880000
 50
90.000000
  7
STANDARD
 71
0
 72
1
  1
2
 73
0
  0
TEXT
  8
PG_SILKSCREEN_TOP
 10
73.725233
 20
43.422100
 11
73.936900
 21
43.422100
 40
0.635000
 41
0.880000
 50
90.000000
  7
STANDARD
 71
0
 72
1
  1
33
 73
0
  0
POLYLINE
  8
PIN_TOP
 66
1
 70
1
 40
0.000000
 41
0.000000
 39
0.000000
  0
VERTEX
  8
PIN_TOP
 10
5.685800
 20
10.814300
 40
0.000000
 41
0.000000
 42
0.000000
  0
VERTEX
  8
PIN_TOP
 10
4.314200
 20
10.814300
 40
0.000000
 41
0.000000
 42
0.000000
  0
VERTEX
  8
PIN_TOP
 10
4.314200
 20
12.185900
 40
0.000000
 41
0.000000
 42
0.000000
  0
VERTEX
  8
PIN_TOP
 10
5.685800
 20
12.185900
 40
0.000000
 41
0.000000
 42
0.000000
  0
SEQEND
  0
POLYLINE
  8
PIN_IN1-LAYER3
 66
1
 70
1
 40
0.000000
 41
0.000000
 39
0.000000
  0
VERTEX
  8
PIN_IN1-LAYER3
 10
5.685800
 20
10.814300
 40
0.000000
 41
0.000000
 42
0.000000
  0
VERTEX
  8
PIN_IN1-LAYER3
 10
4.314200
 20
10.814300
 40
0.000000
 41
0.000000
 42
0.000000
  0
VERTEX
  8
PIN_IN1-LAYER3
 10
4.314200
 20
12.185900
 40
0.000000
 41
0.000000
 42
0.000000
  0
VERTEX
  8
PIN_IN1-LAYER3
 10
5.685800
 20
12.185900
 40
0.000000
 41
0.000000
 42
0.000000
  0
SEQEND
  0
POLYLINE
  8
PIN_IN2-LAYER4
 66
1
 70
1
 40
0.000000
 41
0.000000
 39
0.000000
  0
VERTEX
  8
PIN_IN2-LAYER4
 10
5.685800
 20
10.814300
 40
0.000000
 41
0.000000
 42
0.000000
  0
VERTEX
  8
PIN_IN2-LAYER4
 10
4.314200
 20
10.814300
 40
0.000000
 41
0.000000
 42
0.000000
  0
VERTEX
  8
PIN_IN2-LAYER4
 10
4.314200
 20
12.185900
 40
0.000000
 41
0.000000
 42
0.000000
  0
VERTEX
  8
PIN_IN2-LAYER4
 10
5.685800
 20
12.185900
 40
0.000000
 41
0.000000
 42
0.000000
  0
SEQEND
  0
POLYLINE
  8
PIN_IN3-LAYER6
 66
1
 70
1
 40
0.000000
 41
0.000000
 39
0.000000
  0
VERTEX
  8
PIN_IN3-LAYER6
 10
5.685800
 20
10.814300
 40
0.000000
 41
0.000000
 42
0.000000
  0
VERTEX
  8
PIN_IN3-LAYER6
 10
4.314200
 20
10.814300
 40
0.000000
 41
0.000000
 42
0.000000
  0
VERTEX
  8
PIN_IN3-LAYER6
 10
4.314200
 20
12.185900
 40
0.000000
 41
0.000000
 42
0.000000
  0
VERTEX
  8
PIN_IN3-LAYER6
 10
5.685800
 20
12.185900
 40
0.000000
 41
0.000000
 42
0.000000
  0
SEQEND
  0
POLYLINE
  8
PIN_BOTTOM
 66
1
 70
1
 40
0.000000
 41
0.000000
 39
0.000000
  0
VERTEX
  8
PIN_BOTTOM
 10
5.685800
 20
10.814300
 40
0.000000
 41
0.000000
 42
0.000000
  0
VERTEX
  8
PIN_BOTTOM
 10
4.314200
 20
10.814300
 40
0.000000
 41
0.000000
 42
0.000000
  0
VERTEX
  8
PIN_BOTTOM
 10
4.314200
 20
12.185900
 40
0.000000
 41
0.000000
 42
0.000000
  0
VERTEX
  8
PIN_BOTTOM
 10
5.685800
 20
12.185900
 40
0.000000
 41
0.000000
 42
0.000000
  0
SEQEND
  0
CIRCLE
  8
PIN_TOP
 10
5.000000
 20
13.500100
 40
0.685800
  0
CIRCLE
  8
PIN_IN1-LAYER3
 10
5.000000
 20
13.500100
 40
0.685800
  0
CIRCLE
  8
PIN_IN2-LAYER4
 10
5.000000
 20
13.500100
 40
0.685800
  0
CIRCLE
  8
PIN_IN3-LAYER6
 10
5.000000
 20
13.500100
 40
0.685800
  0
CIRCLE
  8
PIN_BOTTOM
 10
5.000000
 20
13.500100
 40
0.685800
  0
CIRCLE
  8
PIN_TOP
 10
3.000000
 20
11.500100
 40
0.685800
  0
CIRCLE
  8
PIN_IN1-LAYER3
 10
3.000000
 20
11.500100
 40
0.685800
  0
CIRCLE
  8
PIN_IN2-LAYER4
 10
3.000000
 20
11.500100
 40
0.685800
  0
CIRCLE
  8
PIN_IN3-LAYER6
 10
3.000000
 20
11.500100
 40
0.685800
  0
CIRCLE
  8
PIN_BOTTOM
 10
3.000000
 20
11.500100
 40
0.685800
  0
CIRCLE
  8
PIN_TOP
 10
3.000000
 20
13.500100
 40
0.685800
  0
CIRCLE
  8
PIN_IN1-LAYER3
 10
3.000000
 20
13.500100
 40
0.685800
  0
CIRCLE
  8
PIN_IN2-LAYER4
 10
3.000000
 20
13.500100
 40
0.685800
  0
CIRCLE
  8
PIN_IN3-LAYER6
 10
3.000000
 20
13.500100
 40
0.685800
  0
CIRCLE
  8
PIN_BOTTOM
 10
3.000000
 20
13.500100
 40
0.685800
  0
CIRCLE
  8
PIN_TOP
 10
3.000000
 20
15.500100
 40
0.685800
  0
CIRCLE
  8
PIN_IN1-LAYER3
 10
3.000000
 20
15.500100
 40
0.685800
  0
CIRCLE
  8
PIN_IN2-LAYER4
 10
3.000000
 20
15.500100
 40
0.685800
  0
CIRCLE
  8
PIN_IN3-LAYER6
 10
3.000000
 20
15.500100
 40
0.685800
  0
CIRCLE
  8
PIN_BOTTOM
 10
3.000000
 20
15.500100
 40
0.685800
  0
CIRCLE
  8
PIN_TOP
 10
5.000000
 20
15.500100
 40
0.685800
  0
CIRCLE
  8
PIN_IN1-LAYER3
 10
5.000000
 20
15.500100
 40
0.685800
  0
CIRCLE
  8
PIN_IN2-LAYER4
 10
5.000000
 20
15.500100
 40
0.685800
  0
CIRCLE
  8
PIN_IN3-LAYER6
 10
5.000000
 20
15.500100
 40
0.685800
  0
CIRCLE
  8
PIN_BOTTOM
 10
5.000000
 20
15.500100
 40
0.685800
  0
CIRCLE
  8
PIN_TOP
 10
5.000000
 20
17.500100
 40
0.685800
  0
CIRCLE
  8
PIN_IN1-LAYER3
 10
5.000000
 20
17.500100
 40
0.685800
  0
CIRCLE
  8
PIN_IN2-LAYER4
 10
5.000000
 20
17.500100
 40
0.685800
  0
CIRCLE
  8
PIN_IN3-LAYER6
 10
5.000000
 20
17.500100
 40
0.685800
  0
CIRCLE
  8
PIN_BOTTOM
 10
5.000000
 20
17.500100
 40
0.685800
  0
CIRCLE
  8
PIN_TOP
 10
3.000000
 20
17.500100
 40
0.685800
  0
CIRCLE
  8
PIN_IN1-LAYER3
 10
3.000000
 20
17.500100
 40
0.685800
  0
CIRCLE
  8
PIN_IN2-LAYER4
 10
3.000000
 20
17.500100
 40
0.685800
  0
CIRCLE
  8
PIN_IN3-LAYER6
 10
3.000000
 20
17.500100
 40
0.685800
  0
CIRCLE
  8
PIN_BOTTOM
 10
3.000000
 20
17.500100
 40
0.685800
  0
CIRCLE
  8
PIN_TOP
 10
3.000000
 20
19.500100
 40
0.685800
  0
CIRCLE
  8
PIN_IN1-LAYER3
 10
3.000000
 20
19.500100
 40
0.685800
  0
CIRCLE
  8
PIN_IN2-LAYER4
 10
3.000000
 20
19.500100
 40
0.685800
  0
CIRCLE
  8
PIN_IN3-LAYER6
 10
3.000000
 20
19.500100
 40
0.685800
  0
CIRCLE
  8
PIN_BOTTOM
 10
3.000000
 20
19.500100
 40
0.685800
  0
CIRCLE
  8
PIN_TOP
 10
5.000000
 20
19.500100
 40
0.685800
  0
CIRCLE
  8
PIN_IN1-LAYER3
 10
5.000000
 20
19.500100
 40
0.685800
  0
CIRCLE
  8
PIN_IN2-LAYER4
 10
5.000000
 20
19.500100
 40
0.685800
  0
CIRCLE
  8
PIN_IN3-LAYER6
 10
5.000000
 20
19.500100
 40
0.685800
  0
CIRCLE
  8
PIN_BOTTOM
 10
5.000000
 20
19.500100
 40
0.685800
  0
CIRCLE
  8
PIN_TOP
 10
5.000000
 20
21.500100
 40
0.685800
  0
CIRCLE
  8
PIN_IN1-LAYER3
 10
5.000000
 20
21.500100
 40
0.685800
  0
CIRCLE
  8
PIN_IN2-LAYER4
 10
5.000000
 20
21.500100
 40
0.685800
  0
CIRCLE
  8
PIN_IN3-LAYER6
 10
5.000000
 20
21.500100
 40
0.685800
  0
CIRCLE
  8
PIN_BOTTOM
 10
5.000000
 20
21.500100
 40
0.685800
  0
CIRCLE
  8
PIN_TOP
 10
3.000000
 20
21.500100
 40
0.685800
  0
CIRCLE
  8
PIN_IN1-LAYER3
 10
3.000000
 20
21.500100
 40
0.685800
  0
CIRCLE
  8
PIN_IN2-LAYER4
 10
3.000000
 20
21.500100
 40
0.685800
  0
CIRCLE
  8
PIN_IN3-LAYER6
 10
3.000000
 20
21.500100
 40
0.685800
  0
CIRCLE
  8
PIN_BOTTOM
 10
3.000000
 20
21.500100
 40
0.685800
  0
CIRCLE
  8
PIN_TOP
 10
5.000000
 20
23.500100
 40
0.685800
  0
CIRCLE
  8
PIN_IN1-LAYER3
 10
5.000000
 20
23.500100
 40
0.685800
  0
CIRCLE
  8
PIN_IN2-LAYER4
 10
5.000000
 20
23.500100
 40
0.685800
  0
CIRCLE
  8
PIN_IN3-LAYER6
 10
5.000000
 20
23.500100
 40
0.685800
  0
CIRCLE
  8
PIN_BOTTOM
 10
5.000000
 20
23.500100
 40
0.685800
  0
CIRCLE
  8
PIN_TOP
 10
3.000000
 20
23.500100
 40
0.685800
  0
CIRCLE
  8
PIN_IN1-LAYER3
 10
3.000000
 20
23.500100
 40
0.685800
  0
CIRCLE
  8
PIN_IN2-LAYER4
 10
3.000000
 20
23.500100
 40
0.685800
  0
CIRCLE
  8
PIN_IN3-LAYER6
 10
3.000000
 20
23.500100
 40
0.685800
  0
CIRCLE
  8
PIN_BOTTOM
 10
3.000000
 20
23.500100
 40
0.685800
  0
CIRCLE
  8
PIN_TOP
 10
5.000000
 20
25.500100
 40
0.685800
  0
CIRCLE
  8
PIN_IN1-LAYER3
 10
5.000000
 20
25.500100
 40
0.685800
  0
CIRCLE
  8
PIN_IN2-LAYER4
 10
5.000000
 20
25.500100
 40
0.685800
  0
CIRCLE
  8
PIN_IN3-LAYER6
 10
5.000000
 20
25.500100
 40
0.685800
  0
CIRCLE
  8
PIN_BOTTOM
 10
5.000000
 20
25.500100
 40
0.685800
  0
CIRCLE
  8
PIN_TOP
 10
3.000000
 20
25.500100
 40
0.685800
  0
CIRCLE
  8
PIN_IN1-LAYER3
 10
3.000000
 20
25.500100
 40
0.685800
  0
CIRCLE
  8
PIN_IN2-LAYER4
 10
3.000000
 20
25.500100
 40
0.685800
  0
CIRCLE
  8
PIN_IN3-LAYER6
 10
3.000000
 20
25.500100
 40
0.685800
  0
CIRCLE
  8
PIN_BOTTOM
 10
3.000000
 20
25.500100
 40
0.685800
  0
CIRCLE
  8
PIN_TOP
 10
5.000000
 20
27.500100
 40
0.685800
  0
CIRCLE
  8
PIN_IN1-LAYER3
 10
5.000000
 20
27.500100
 40
0.685800
  0
CIRCLE
  8
PIN_IN2-LAYER4
 10
5.000000
 20
27.500100
 40
0.685800
  0
CIRCLE
  8
PIN_IN3-LAYER6
 10
5.000000
 20
27.500100
 40
0.685800
  0
CIRCLE
  8
PIN_BOTTOM
 10
5.000000
 20
27.500100
 40
0.685800
  0
CIRCLE
  8
PIN_TOP
 10
3.000000
 20
27.500100
 40
0.685800
  0
CIRCLE
  8
PIN_IN1-LAYER3
 10
3.000000
 20
27.500100
 40
0.685800
  0
CIRCLE
  8
PIN_IN2-LAYER4
 10
3.000000
 20
27.500100
 40
0.685800
  0
CIRCLE
  8
PIN_IN3-LAYER6
 10
3.000000
 20
27.500100
 40
0.685800
  0
CIRCLE
  8
PIN_BOTTOM
 10
3.000000
 20
27.500100
 40
0.685800
  0
CIRCLE
  8
PIN_TOP
 10
5.000000
 20
29.500100
 40
0.685800
  0
CIRCLE
  8
PIN_IN1-LAYER3
 10
5.000000
 20
29.500100
 40
0.685800
  0
CIRCLE
  8
PIN_IN2-LAYER4
 10
5.000000
 20
29.500100
 40
0.685800
  0
CIRCLE
  8
PIN_IN3-LAYER6
 10
5.000000
 20
29.500100
 40
0.685800
  0
CIRCLE
  8
PIN_BOTTOM
 10
5.000000
 20
29.500100
 40
0.685800
  0
CIRCLE
  8
PIN_TOP
 10
3.000000
 20
29.500100
 40
0.685800
  0
CIRCLE
  8
PIN_IN1-LAYER3
 10
3.000000
 20
29.500100
 40
0.685800
  0
CIRCLE
  8
PIN_IN2-LAYER4
 10
3.000000
 20
29.500100
 40
0.685800
  0
CIRCLE
  8
PIN_IN3-LAYER6
 10
3.000000
 20
29.500100
 40
0.685800
  0
CIRCLE
  8
PIN_BOTTOM
 10
3.000000
 20
29.500100
 40
0.685800
  0
CIRCLE
  8
PIN_TOP
 10
5.000000
 20
31.500100
 40
0.685800
  0
CIRCLE
  8
PIN_IN1-LAYER3
 10
5.000000
 20
31.500100
 40
0.685800
  0
CIRCLE
  8
PIN_IN2-LAYER4
 10
5.000000
 20
31.500100
 40
0.685800
  0
CIRCLE
  8
PIN_IN3-LAYER6
 10
5.000000
 20
31.500100
 40
0.685800
  0
CIRCLE
  8
PIN_BOTTOM
 10
5.000000
 20
31.500100
 40
0.685800
  0
CIRCLE
  8
PIN_TOP
 10
3.000000
 20
31.500100
 40
0.685800
  0
CIRCLE
  8
PIN_IN1-LAYER3
 10
3.000000
 20
31.500100
 40
0.685800
  0
CIRCLE
  8
PIN_IN2-LAYER4
 10
3.000000
 20
31.500100
 40
0.685800
  0
CIRCLE
  8
PIN_IN3-LAYER6
 10
3.000000
 20
31.500100
 40
0.685800
  0
CIRCLE
  8
PIN_BOTTOM
 10
3.000000
 20
31.500100
 40
0.685800
  0
CIRCLE
  8
PIN_TOP
 10
5.000000
 20
33.500100
 40
0.685800
  0
CIRCLE
  8
PIN_IN1-LAYER3
 10
5.000000
 20
33.500100
 40
0.685800
  0
CIRCLE
  8
PIN_IN2-LAYER4
 10
5.000000
 20
33.500100
 40
0.685800
  0
CIRCLE
  8
PIN_IN3-LAYER6
 10
5.000000
 20
33.500100
 40
0.685800
  0
CIRCLE
  8
PIN_BOTTOM
 10
5.000000
 20
33.500100
 40
0.685800
  0
CIRCLE
  8
PIN_TOP
 10
3.000000
 20
33.500100
 40
0.685800
  0
CIRCLE
  8
PIN_IN1-LAYER3
 10
3.000000
 20
33.500100
 40
0.685800
  0
CIRCLE
  8
PIN_IN2-LAYER4
 10
3.000000
 20
33.500100
 40
0.685800
  0
CIRCLE
  8
PIN_IN3-LAYER6
 10
3.000000
 20
33.500100
 40
0.685800
  0
CIRCLE
  8
PIN_BOTTOM
 10
3.000000
 20
33.500100
 40
0.685800
  0
CIRCLE
  8
PIN_TOP
 10
5.000000
 20
35.500100
 40
0.685800
  0
CIRCLE
  8
PIN_IN1-LAYER3
 10
5.000000
 20
35.500100
 40
0.685800
  0
CIRCLE
  8
PIN_IN2-LAYER4
 10
5.000000
 20
35.500100
 40
0.685800
  0
CIRCLE
  8
PIN_IN3-LAYER6
 10
5.000000
 20
35.500100
 40
0.685800
  0
CIRCLE
  8
PIN_BOTTOM
 10
5.000000
 20
35.500100
 40
0.685800
  0
CIRCLE
  8
PIN_TOP
 10
3.000000
 20
35.500100
 40
0.685800
  0
CIRCLE
  8
PIN_IN1-LAYER3
 10
3.000000
 20
35.500100
 40
0.685800
  0
CIRCLE
  8
PIN_IN2-LAYER4
 10
3.000000
 20
35.500100
 40
0.685800
  0
CIRCLE
  8
PIN_IN3-LAYER6
 10
3.000000
 20
35.500100
 40
0.685800
  0
CIRCLE
  8
PIN_BOTTOM
 10
3.000000
 20
35.500100
 40
0.685800
  0
CIRCLE
  8
PIN_TOP
 10
5.000000
 20
37.500100
 40
0.685800
  0
CIRCLE
  8
PIN_IN1-LAYER3
 10
5.000000
 20
37.500100
 40
0.685800
  0
CIRCLE
  8
PIN_IN2-LAYER4
 10
5.000000
 20
37.500100
 40
0.685800
  0
CIRCLE
  8
PIN_IN3-LAYER6
 10
5.000000
 20
37.500100
 40
0.685800
  0
CIRCLE
  8
PIN_BOTTOM
 10
5.000000
 20
37.500100
 40
0.685800
  0
CIRCLE
  8
PIN_TOP
 10
3.000000
 20
37.500100
 40
0.685800
  0
CIRCLE
  8
PIN_IN1-LAYER3
 10
3.000000
 20
37.500100
 40
0.685800
  0
CIRCLE
  8
PIN_IN2-LAYER4
 10
3.000000
 20
37.500100
 40
0.685800
  0
CIRCLE
  8
PIN_IN3-LAYER6
 10
3.000000
 20
37.500100
 40
0.685800
  0
CIRCLE
  8
PIN_BOTTOM
 10
3.000000
 20
37.500100
 40
0.685800
  0
CIRCLE
  8
PIN_TOP
 10
5.000000
 20
39.500100
 40
0.685800
  0
CIRCLE
  8
PIN_IN1-LAYER3
 10
5.000000
 20
39.500100
 40
0.685800
  0
CIRCLE
  8
PIN_IN2-LAYER4
 10
5.000000
 20
39.500100
 40
0.685800
  0
CIRCLE
  8
PIN_IN3-LAYER6
 10
5.000000
 20
39.500100
 40
0.685800
  0
CIRCLE
  8
PIN_BOTTOM
 10
5.000000
 20
39.500100
 40
0.685800
  0
CIRCLE
  8
PIN_TOP
 10
3.000000
 20
39.500100
 40
0.685800
  0
CIRCLE
  8
PIN_IN1-LAYER3
 10
3.000000
 20
39.500100
 40
0.685800
  0
CIRCLE
  8
PIN_IN2-LAYER4
 10
3.000000
 20
39.500100
 40
0.685800
  0
CIRCLE
  8
PIN_IN3-LAYER6
 10
3.000000
 20
39.500100
 40
0.685800
  0
CIRCLE
  8
PIN_BOTTOM
 10
3.000000
 20
39.500100
 40
0.685800
  0
CIRCLE
  8
PIN_TOP
 10
5.000000
 20
41.500100
 40
0.685800
  0
CIRCLE
  8
PIN_IN1-LAYER3
 10
5.000000
 20
41.500100
 40
0.685800
  0
CIRCLE
  8
PIN_IN2-LAYER4
 10
5.000000
 20
41.500100
 40
0.685800
  0
CIRCLE
  8
PIN_IN3-LAYER6
 10
5.000000
 20
41.500100
 40
0.685800
  0
CIRCLE
  8
PIN_BOTTOM
 10
5.000000
 20
41.500100
 40
0.685800
  0
CIRCLE
  8
PIN_TOP
 10
3.000000
 20
41.500100
 40
0.685800
  0
CIRCLE
  8
PIN_IN1-LAYER3
 10
3.000000
 20
41.500100
 40
0.685800
  0
CIRCLE
  8
PIN_IN2-LAYER4
 10
3.000000
 20
41.500100
 40
0.685800
  0
CIRCLE
  8
PIN_IN3-LAYER6
 10
3.000000
 20
41.500100
 40
0.685800
  0
CIRCLE
  8
PIN_BOTTOM
 10
3.000000
 20
41.500100
 40
0.685800
  0
CIRCLE
  8
PIN_TOP
 10
5.000000
 20
43.500100
 40
0.685800
  0
CIRCLE
  8
PIN_IN1-LAYER3
 10
5.000000
 20
43.500100
 40
0.685800
  0
CIRCLE
  8
PIN_IN2-LAYER4
 10
5.000000
 20
43.500100
 40
0.685800
  0
CIRCLE
  8
PIN_IN3-LAYER6
 10
5.000000
 20
43.500100
 40
0.685800
  0
CIRCLE
  8
PIN_BOTTOM
 10
5.000000
 20
43.500100
 40
0.685800
  0
CIRCLE
  8
PIN_TOP
 10
3.000000
 20
43.500100
 40
0.685800
  0
CIRCLE
  8
PIN_IN1-LAYER3
 10
3.000000
 20
43.500100
 40
0.685800
  0
CIRCLE
  8
PIN_IN2-LAYER4
 10
3.000000
 20
43.500100
 40
0.685800
  0
CIRCLE
  8
PIN_IN3-LAYER6
 10
3.000000
 20
43.500100
 40
0.685800
  0
CIRCLE
  8
PIN_BOTTOM
 10
3.000000
 20
43.500100
 40
0.685800
  0
POLYLINE
  8
PG_SILKSCREEN_TOP
 66
1
 70
0
 40
0.000000
 41
0.000000
 39
0.000000
  0
VERTEX
  8
PG_SILKSCREEN_TOP
 10
1.460000
 20
10.500100
 40
0.203200
 41
0.203200
 42
0.000000
  0
VERTEX
  8
PG_SILKSCREEN_TOP
 10
1.460000
 20
44.800000
 40
0.203200
 41
0.203200
 42
0.000000
  0
VERTEX
  8
PG_SILKSCREEN_TOP
 10
6.540000
 20
44.800000
 40
0.203200
 41
0.203200
 42
0.000000
  0
VERTEX
  8
PG_SILKSCREEN_TOP
 10
6.540000
 20
10.500100
 40
0.203200
 41
0.203200
 42
0.000000
  0
SEQEND
  0
POLYLINE
  8
PG_SILKSCREEN_TOP
 66
1
 70
0
 40
0.000000
 41
0.000000
 39
0.000000
  0
VERTEX
  8
PG_SILKSCREEN_TOP
 10
1.460000
 20
10.500100
 40
0.203200
 41
0.203200
 42
0.000000
  0
VERTEX
  8
PG_SILKSCREEN_TOP
 10
1.460000
 20
9.700000
 40
0.203200
 41
0.203200
 42
0.000000
  0
VERTEX
  8
PG_SILKSCREEN_TOP
 10
6.540000
 20
9.700000
 40
0.203200
 41
0.203200
 42
0.000000
  0
VERTEX
  8
PG_SILKSCREEN_TOP
 10
6.540000
 20
10.500100
 40
0.203200
 41
0.203200
 42
0.000000
  0
SEQEND
  0
POLYLINE
  8
PG_SILKSCREEN_TOP
 66
1
 70
0
 40
0.000000
 41
0.000000
 39
0.000000
  0
VERTEX
  8
PG_SILKSCREEN_TOP
 10
4.000000
 20
28.500100
 40
0.150100
 41
0.150100
 42
0.000000
  0
VERTEX
  8
PG_SILKSCREEN_TOP
 10
4.000000
 20
27.500100
 40
0.150100
 41
0.150100
 42
0.000000
  0
VERTEX
  8
PG_SILKSCREEN_TOP
 10
3.000000
 20
27.500100
 40
0.150100
 41
0.150100
 42
0.000000
  0
SEQEND
  0
POLYLINE
  8
PG_SILKSCREEN_TOP
 66
1
 70
0
 40
0.000000
 41
0.000000
 39
0.000000
  0
VERTEX
  8
PG_SILKSCREEN_TOP
 10
4.000000
 20
26.500100
 40
0.150100
 41
0.150100
 42
0.000000
  0
VERTEX
  8
PG_SILKSCREEN_TOP
 10
4.000000
 20
27.500100
 40
0.150100
 41
0.150100
 42
0.000000
  0
VERTEX
  8
PG_SILKSCREEN_TOP
 10
5.000000
 20
27.500100
 40
0.150100
 41
0.150100
 42
0.000000
  0
SEQEND
  0
POLYLINE
  8
PG_SILKSCREEN_TOP
 66
1
 70
1
 40
0.000000
 41
0.000000
 39
0.000000
  0
VERTEX
  8
PG_SILKSCREEN_TOP
 10
1.460000
 20
9.700000
 40
0.000000
 41
0.000000
 42
0.000000
  0
VERTEX
  8
PG_SILKSCREEN_TOP
 10
1.460000
 20
10.200100
 40
0.000000
 41
0.000000
 42
0.000000
  0
VERTEX
  8
PG_SILKSCREEN_TOP
 10
6.540000
 20
10.200100
 40
0.000000
 41
0.000000
 42
0.000000
  0
VERTEX
  8
PG_SILKSCREEN_TOP
 10
6.540000
 20
9.700000
 40
0.000000
 41
0.000000
 42
0.000000
  0
SEQEND
  0
POLYLINE
  8
PG_SILKSCREEN_TOP
 66
1
 70
1
 40
0.000000
 41
0.000000
 39
0.000000
  0
VERTEX
  8
PG_SILKSCREEN_TOP
 10
6.778000
 20
11.500100
 40
0.000000
 41
0.000000
 42
0.000000
  0
VERTEX
  8
PG_SILKSCREEN_TOP
 10
7.794000
 20
10.484100
 40
0.000000
 41
0.000000
 42
0.000000
  0
VERTEX
  8
PG_SILKSCREEN_TOP
 10
7.794000
 20
12.516100
 40
0.000000
 41
0.000000
 42
0.000000
  0
SEQEND
  0
TEXT
  8
RD_SILKSCREEN_TOP
 10
1.227800
 20
25.044400
 11
0.000000
 21
0.000000
 40
0.635000
 41
0.880000
 50
90.000000
  7
STANDARD
 71
0
 72
0
  1
P3
 73
0
  0
TEXT
  8
PG_SILKSCREEN_TOP
 10
0.867333
 20
11.578100
 11
1.079000
 21
11.578100
 40
0.635000
 41
0.880000
 50
90.000000
  7
STANDARD
 71
0
 72
1
  1
2
 73
0
  0
TEXT
  8
PG_SILKSCREEN_TOP
 10
7.239133
 20
42.418000
 11
7.450800
 21
42.418000
 40
0.635000
 41
0.880000
 50
90.000000
  7
STANDARD
 71
0
 72
1
  1
33
 73
0
  0
TEXT
  8
PG_SILKSCREEN_TOP
 10
0.867333
 20
43.549100
 11
1.079000
 21
43.549100
 40
0.635000
 41
0.880000
 50
90.000000
  7
STANDARD
 71
0
 72
1
  1
34
 73
0
  0
POLYLINE
  8
PIN_TOP
 66
1
 70
1
 40
0.000000
 41
0.000000
 39
0.000000
  0
VERTEX
  8
PIN_TOP
 10
28.752800
 20
17.696200
 40
0.000000
 41
0.000000
 42
0.000000
  0
VERTEX
  8
PIN_TOP
 10
27.813000
 20
17.696200
 40
0.000000
 41
0.000000
 42
-1.000000
  0
VERTEX
  8
PIN_TOP
 10
27.813000
 20
17.950200
 40
0.000000
 41
0.000000
 42
0.000000
  0
VERTEX
  8
PIN_TOP
 10
28.752800
 20
17.950200
 40
0.000000
 41
0.000000
 42
-1.000000
  0
SEQEND
  0
POLYLINE
  8
PIN_TOP
 66
1
 70
1
 40
0.000000
 41
0.000000
 39
0.000000
  0
VERTEX
  8
PIN_TOP
 10
28.752800
 20
17.196100
 40
0.000000
 41
0.000000
 42
0.000000
  0
VERTEX
  8
PIN_TOP
 10
27.813000
 20
17.196100
 40
0.000000
 41
0.000000
 42
-1.000000
  0
VERTEX
  8
PIN_TOP
 10
27.813000
 20
17.450100
 40
0.000000
 41
0.000000
 42
0.000000
  0
VERTEX
  8
PIN_TOP
 10
28.752800
 20
17.450100
 40
0.000000
 41
0.000000
 42
-1.000000
  0
SEQEND
  0
POLYLINE
  8
PIN_TOP
 66
1
 70
1
 40
0.000000
 41
0.000000
 39
0.000000
  0
VERTEX
  8
PIN_TOP
 10
28.752800
 20
16.696200
 40
0.000000
 41
0.000000
 42
0.000000
  0
VERTEX
  8
PIN_TOP
 10
27.813000
 20
16.696200
 40
0.000000
 41
0.000000
 42
-1.000000
  0
VERTEX
  8
PIN_TOP
 10
27.813000
 20
16.950200
 40
0.000000
 41
0.000000
 42
0.000000
  0
VERTEX
  8
PIN_TOP
 10
28.752800
 20
16.950200
 40
0.000000
 41
0.000000
 42
-1.000000
  0
SEQEND
  0
POLYLINE
  8
PIN_TOP
 66
1
 70
1
 40
0.000000
 41
0.000000
 39
0.000000
  0
VERTEX
  8
PIN_TOP
 10
28.752800
 20
16.196100
 40
0.000000
 41
0.000000
 42
0.000000
  0
VERTEX
  8
PIN_TOP
 10
27.813000
 20
16.196100
 40
0.000000
 41
0.000000
 42
-1.000000
  0
VERTEX
  8
PIN_TOP
 10
27.813000
 20
16.450100
 40
0.000000
 41
0.000000
 42
0.000000
  0
VERTEX
  8
PIN_TOP
 10
28.752800
 20
16.450100
 40
0.000000
 41
0.000000
 42
-1.000000
  0
SEQEND
  0
POLYLINE
  8
PIN_TOP
 66
1
 70
1
 40
0.000000
 41
0.000000
 39
0.000000
  0
VERTEX
  8
PIN_TOP
 10
28.752800
 20
15.696200
 40
0.000000
 41
0.000000
 42
0.000000
  0
VERTEX
  8
PIN_TOP
 10
27.813000
 20
15.696200
 40
0.000000
 41
0.000000
 42
-1.000000
  0
VERTEX
  8
PIN_TOP
 10
27.813000
 20
15.950200
 40
0.000000
 41
0.000000
 42
0.000000
  0
VERTEX
  8
PIN_TOP
 10
28.752800
 20
15.950200
 40
0.000000
 41
0.000000
 42
-1.000000
  0
SEQEND
  0
POLYLINE
  8
PIN_TOP
 66
1
 70
1
 40
0.000000
 41
0.000000
 39
0.000000
  0
VERTEX
  8
PIN_TOP
 10
28.752800
 20
15.196100
 40
0.000000
 41
0.000000
 42
0.000000
  0
VERTEX
  8
PIN_TOP
 10
27.813000
 20
15.196100
 40
0.000000
 41
0.000000
 42
-1.000000
  0
VERTEX
  8
PIN_TOP
 10
27.813000
 20
15.450100
 40
0.000000
 41
0.000000
 42
0.000000
  0
VERTEX
  8
PIN_TOP
 10
28.752800
 20
15.450100
 40
0.000000
 41
0.000000
 42
-1.000000
  0
SEQEND
  0
POLYLINE
  8
PIN_TOP
 66
1
 70
1
 40
0.000000
 41
0.000000
 39
0.000000
  0
VERTEX
  8
PIN_TOP
 10
28.752800
 20
14.696200
 40
0.000000
 41
0.000000
 42
0.000000
  0
VERTEX
  8
PIN_TOP
 10
27.813000
 20
14.696200
 40
0.000000
 41
0.000000
 42
-1.000000
  0
VERTEX
  8
PIN_TOP
 10
27.813000
 20
14.950200
 40
0.000000
 41
0.000000
 42
0.000000
  0
VERTEX
  8
PIN_TOP
 10
28.752800
 20
14.950200
 40
0.000000
 41
0.000000
 42
-1.000000
  0
SEQEND
  0
POLYLINE
  8
PIN_TOP
 66
1
 70
1
 40
0.000000
 41
0.000000
 39
0.000000
  0
VERTEX
  8
PIN_TOP
 10
28.752800
 20
14.196100
 40
0.000000
 41
0.000000
 42
0.000000
  0
VERTEX
  8
PIN_TOP
 10
27.813000
 20
14.196100
 40
0.000000
 41
0.000000
 42
-1.000000
  0
VERTEX
  8
PIN_TOP
 10
27.813000
 20
14.450100
 40
0.000000
 41
0.000000
 42
0.000000
  0
VERTEX
  8
PIN_TOP
 10
28.752800
 20
14.450100
 40
0.000000
 41
0.000000
 42
-1.000000
  0
SEQEND
  0
POLYLINE
  8
PIN_TOP
 66
1
 70
1
 40
0.000000
 41
0.000000
 39
0.000000
  0
VERTEX
  8
PIN_TOP
 10
28.752800
 20
13.696200
 40
0.000000
 41
0.000000
 42
0.000000
  0
VERTEX
  8
PIN_TOP
 10
27.813000
 20
13.696200
 40
0.000000
 41
0.000000
 42
-1.000000
  0
VERTEX
  8
PIN_TOP
 10
27.813000
 20
13.950200
 40
0.000000
 41
0.000000
 42
0.000000
  0
VERTEX
  8
PIN_TOP
 10
28.752800
 20
13.950200
 40
0.000000
 41
0.000000
 42
-1.000000
  0
SEQEND
  0
POLYLINE
  8
PIN_TOP
 66
1
 70
1
 40
0.000000
 41
0.000000
 39
0.000000
  0
VERTEX
  8
PIN_TOP
 10
28.752800
 20
13.196100
 40
0.000000
 41
0.000000
 42
0.000000
  0
VERTEX
  8
PIN_TOP
 10
27.813000
 20
13.196100
 40
0.000000
 41
0.000000
 42
-1.000000
  0
VERTEX
  8
PIN_TOP
 10
27.813000
 20
13.450100
 40
0.000000
 41
0.000000
 42
0.000000
  0
VERTEX
  8
PIN_TOP
 10
28.752800
 20
13.450100
 40
0.000000
 41
0.000000
 42
-1.000000
  0
SEQEND
  0
POLYLINE
  8
PIN_TOP
 66
1
 70
1
 40
0.000000
 41
0.000000
 39
0.000000
  0
VERTEX
  8
PIN_TOP
 10
28.752800
 20
12.696200
 40
0.000000
 41
0.000000
 42
0.000000
  0
VERTEX
  8
PIN_TOP
 10
27.813000
 20
12.696200
 40
0.000000
 41
0.000000
 42
-1.000000
  0
VERTEX
  8
PIN_TOP
 10
27.813000
 20
12.950200
 40
0.000000
 41
0.000000
 42
0.000000
  0
VERTEX
  8
PIN_TOP
 10
28.752800
 20
12.950200
 40
0.000000
 41
0.000000
 42
-1.000000
  0
SEQEND
  0
POLYLINE
  8
PIN_TOP
 66
1
 70
1
 40
0.000000
 41
0.000000
 39
0.000000
  0
VERTEX
  8
PIN_TOP
 10
28.752800
 20
12.196100
 40
0.000000
 41
0.000000
 42
0.000000
  0
VERTEX
  8
PIN_TOP
 10
27.813000
 20
12.196100
 40
0.000000
 41
0.000000
 42
-1.000000
  0
VERTEX
  8
PIN_TOP
 10
27.813000
 20
12.450100
 40
0.000000
 41
0.000000
 42
0.000000
  0
VERTEX
  8
PIN_TOP
 10
28.752800
 20
12.450100
 40
0.000000
 41
0.000000
 42
-1.000000
  0
SEQEND
  0
POLYLINE
  8
PIN_TOP
 66
1
 70
1
 40
0.000000
 41
0.000000
 39
0.000000
  0
VERTEX
  8
PIN_TOP
 10
28.752800
 20
11.696200
 40
0.000000
 41
0.000000
 42
0.000000
  0
VERTEX
  8
PIN_TOP
 10
27.813000
 20
11.696200
 40
0.000000
 41
0.000000
 42
-1.000000
  0
VERTEX
  8
PIN_TOP
 10
27.813000
 20
11.950200
 40
0.000000
 41
0.000000
 42
0.000000
  0
VERTEX
  8
PIN_TOP
 10
28.752800
 20
11.950200
 40
0.000000
 41
0.000000
 42
-1.000000
  0
SEQEND
  0
POLYLINE
  8
PIN_TOP
 66
1
 70
1
 40
0.000000
 41
0.000000
 39
0.000000
  0
VERTEX
  8
PIN_TOP
 10
28.752800
 20
11.196100
 40
0.000000
 41
0.000000
 42
0.000000
  0
VERTEX
  8
PIN_TOP
 10
27.813000
 20
11.196100
 40
0.000000
 41
0.000000
 42
-1.000000
  0
VERTEX
  8
PIN_TOP
 10
27.813000
 20
11.450100
 40
0.000000
 41
0.000000
 42
0.000000
  0
VERTEX
  8
PIN_TOP
 10
28.752800
 20
11.450100
 40
0.000000
 41
0.000000
 42
-1.000000
  0
SEQEND
  0
POLYLINE
  8
PIN_TOP
 66
1
 70
1
 40
0.000000
 41
0.000000
 39
0.000000
  0
VERTEX
  8
PIN_TOP
 10
28.752800
 20
10.696200
 40
0.000000
 41
0.000000
 42
0.000000
  0
VERTEX
  8
PIN_TOP
 10
27.813000
 20
10.696200
 40
0.000000
 41
0.000000
 42
-1.000000
  0
VERTEX
  8
PIN_TOP
 10
27.813000
 20
10.950200
 40
0.000000
 41
0.000000
 42
0.000000
  0
VERTEX
  8
PIN_TOP
 10
28.752800
 20
10.950200
 40
0.000000
 41
0.000000
 42
-1.000000
  0
SEQEND
  0
POLYLINE
  8
PIN_TOP
 66
1
 70
1
 40
0.000000
 41
0.000000
 39
0.000000
  0
VERTEX
  8
PIN_TOP
 10
28.752800
 20
10.196100
 40
0.000000
 41
0.000000
 42
0.000000
  0
VERTEX
  8
PIN_TOP
 10
27.813000
 20
10.196100
 40
0.000000
 41
0.000000
 42
-1.000000
  0
VERTEX
  8
PIN_TOP
 10
27.813000
 20
10.450100
 40
0.000000
 41
0.000000
 42
0.000000
  0
VERTEX
  8
PIN_TOP
 10
28.752800
 20
10.450100
 40
0.000000
 41
0.000000
 42
-1.000000
  0
SEQEND
  0
POLYLINE
  8
PIN_TOP
 66
1
 70
1
 40
0.000000
 41
0.000000
 39
0.000000
  0
VERTEX
  8
PIN_TOP
 10
28.752800
 20
9.696200
 40
0.000000
 41
0.000000
 42
0.000000
  0
VERTEX
  8
PIN_TOP
 10
27.813000
 20
9.696200
 40
0.000000
 41
0.000000
 42
-1.000000
  0
VERTEX
  8
PIN_TOP
 10
27.813000
 20
9.950200
 40
0.000000
 41
0.000000
 42
0.000000
  0
VERTEX
  8
PIN_TOP
 10
28.752800
 20
9.950200
 40
0.000000
 41
0.000000
 42
-1.000000
  0
SEQEND
  0
POLYLINE
  8
PIN_TOP
 66
1
 70
1
 40
0.000000
 41
0.000000
 39
0.000000
  0
VERTEX
  8
PIN_TOP
 10
28.752800
 20
9.196100
 40
0.000000
 41
0.000000
 42
0.000000
  0
VERTEX
  8
PIN_TOP
 10
27.813000
 20
9.196100
 40
0.000000
 41
0.000000
 42
-1.000000
  0
VERTEX
  8
PIN_TOP
 10
27.813000
 20
9.450100
 40
0.000000
 41
0.000000
 42
0.000000
  0
VERTEX
  8
PIN_TOP
 10
28.752800
 20
9.450100
 40
0.000000
 41
0.000000
 42
-1.000000
  0
SEQEND
  0
POLYLINE
  8
PIN_TOP
 66
1
 70
1
 40
0.000000
 41
0.000000
 39
0.000000
  0
VERTEX
  8
PIN_TOP
 10
28.752800
 20
8.696200
 40
0.000000
 41
0.000000
 42
0.000000
  0
VERTEX
  8
PIN_TOP
 10
27.813000
 20
8.696200
 40
0.000000
 41
0.000000
 42
-1.000000
  0
VERTEX
  8
PIN_TOP
 10
27.813000
 20
8.950200
 40
0.000000
 41
0.000000
 42
0.000000
  0
VERTEX
  8
PIN_TOP
 10
28.752800
 20
8.950200
 40
0.000000
 41
0.000000
 42
-1.000000
  0
SEQEND
  0
POLYLINE
  8
PIN_TOP
 66
1
 70
1
 40
0.000000
 41
0.000000
 39
0.000000
  0
VERTEX
  8
PIN_TOP
 10
28.752800
 20
8.196100
 40
0.000000
 41
0.000000
 42
0.000000
  0
VERTEX
  8
PIN_TOP
 10
27.813000
 20
8.196100
 40
0.000000
 41
0.000000
 42
-1.000000
  0
VERTEX
  8
PIN_TOP
 10
27.813000
 20
8.450100
 40
0.000000
 41
0.000000
 42
0.000000
  0
VERTEX
  8
PIN_TOP
 10
28.752800
 20
8.450100
 40
0.000000
 41
0.000000
 42
-1.000000
  0
SEQEND
  0
POLYLINE
  8
PIN_TOP
 66
1
 70
1
 40
0.000000
 41
0.000000
 39
0.000000
  0
VERTEX
  8
PIN_TOP
 10
28.752800
 20
7.696200
 40
0.000000
 41
0.000000
 42
0.000000
  0
VERTEX
  8
PIN_TOP
 10
27.813000
 20
7.696200
 40
0.000000
 41
0.000000
 42
-1.000000
  0
VERTEX
  8
PIN_TOP
 10
27.813000
 20
7.950200
 40
0.000000
 41
0.000000
 42
0.000000
  0
VERTEX
  8
PIN_TOP
 10
28.752800
 20
7.950200
 40
0.000000
 41
0.000000
 42
-1.000000
  0
SEQEND
  0
POLYLINE
  8
PIN_TOP
 66
1
 70
1
 40
0.000000
 41
0.000000
 39
0.000000
  0
VERTEX
  8
PIN_TOP
 10
28.752800
 20
7.196100
 40
0.000000
 41
0.000000
 42
0.000000
  0
VERTEX
  8
PIN_TOP
 10
27.813000
 20
7.196100
 40
0.000000
 41
0.000000
 42
-1.000000
  0
VERTEX
  8
PIN_TOP
 10
27.813000
 20
7.450100
 40
0.000000
 41
0.000000
 42
0.000000
  0
VERTEX
  8
PIN_TOP
 10
28.752800
 20
7.450100
 40
0.000000
 41
0.000000
 42
-1.000000
  0
SEQEND
  0
POLYLINE
  8
PIN_TOP
 66
1
 70
1
 40
0.000000
 41
0.000000
 39
0.000000
  0
VERTEX
  8
PIN_TOP
 10
8.763000
 20
7.196100
 40
0.000000
 41
0.000000
 42
0.000000
  0
VERTEX
  8
PIN_TOP
 10
7.823200
 20
7.196100
 40
0.000000
 41
0.000000
 42
-1.000000
  0
VERTEX
  8
PIN_TOP
 10
7.823200
 20
7.450100
 40
0.000000
 41
0.000000
 42
0.000000
  0
VERTEX
  8
PIN_TOP
 10
8.763000
 20
7.450100
 40
0.000000
 41
0.000000
 42
-1.000000
  0
SEQEND
  0
POLYLINE
  8
PIN_TOP
 66
1
 70
1
 40
0.000000
 41
0.000000
 39
0.000000
  0
VERTEX
  8
PIN_TOP
 10
8.763000
 20
7.696200
 40
0.000000
 41
0.000000
 42
0.000000
  0
VERTEX
  8
PIN_TOP
 10
7.823200
 20
7.696200
 40
0.000000
 41
0.000000
 42
-1.000000
  0
VERTEX
  8
PIN_TOP
 10
7.823200
 20
7.950200
 40
0.000000
 41
0.000000
 42
0.000000
  0
VERTEX
  8
PIN_TOP
 10
8.763000
 20
7.950200
 40
0.000000
 41
0.000000
 42
-1.000000
  0
SEQEND
  0
POLYLINE
  8
PIN_TOP
 66
1
 70
1
 40
0.000000
 41
0.000000
 39
0.000000
  0
VERTEX
  8
PIN_TOP
 10
8.763000
 20
8.196100
 40
0.000000
 41
0.000000
 42
0.000000
  0
VERTEX
  8
PIN_TOP
 10
7.823200
 20
8.196100
 40
0.000000
 41
0.000000
 42
-1.000000
  0
VERTEX
  8
PIN_TOP
 10
7.823200
 20
8.450100
 40
0.000000
 41
0.000000
 42
0.000000
  0
VERTEX
  8
PIN_TOP
 10
8.763000
 20
8.450100
 40
0.000000
 41
0.000000
 42
-1.000000
  0
SEQEND
  0
POLYLINE
  8
PIN_TOP
 66
1
 70
1
 40
0.000000
 41
0.000000
 39
0.000000
  0
VERTEX
  8
PIN_TOP
 10
8.763000
 20
8.696200
 40
0.000000
 41
0.000000
 42
0.000000
  0
VERTEX
  8
PIN_TOP
 10
7.823200
 20
8.696200
 40
0.000000
 41
0.000000
 42
-1.000000
  0
VERTEX
  8
PIN_TOP
 10
7.823200
 20
8.950200
 40
0.000000
 41
0.000000
 42
0.000000
  0
VERTEX
  8
PIN_TOP
 10
8.763000
 20
8.950200
 40
0.000000
 41
0.000000
 42
-1.000000
  0
SEQEND
  0
POLYLINE
  8
PIN_TOP
 66
1
 70
1
 40
0.000000
 41
0.000000
 39
0.000000
  0
VERTEX
  8
PIN_TOP
 10
8.763000
 20
9.196100
 40
0.000000
 41
0.000000
 42
0.000000
  0
VERTEX
  8
PIN_TOP
 10
7.823200
 20
9.196100
 40
0.000000
 41
0.000000
 42
-1.000000
  0
VERTEX
  8
PIN_TOP
 10
7.823200
 20
9.450100
 40
0.000000
 41
0.000000
 42
0.000000
  0
VERTEX
  8
PIN_TOP
 10
8.763000
 20
9.450100
 40
0.000000
 41
0.000000
 42
-1.000000
  0
SEQEND
  0
POLYLINE
  8
PIN_TOP
 66
1
 70
1
 40
0.000000
 41
0.000000
 39
0.000000
  0
VERTEX
  8
PIN_TOP
 10
8.763000
 20
9.696200
 40
0.000000
 41
0.000000
 42
0.000000
  0
VERTEX
  8
PIN_TOP
 10
7.823200
 20
9.696200
 40
0.000000
 41
0.000000
 42
-1.000000
  0
VERTEX
  8
PIN_TOP
 10
7.823200
 20
9.950200
 40
0.000000
 41
0.000000
 42
0.000000
  0
VERTEX
  8
PIN_TOP
 10
8.763000
 20
9.950200
 40
0.000000
 41
0.000000
 42
-1.000000
  0
SEQEND
  0
POLYLINE
  8
PIN_TOP
 66
1
 70
1
 40
0.000000
 41
0.000000
 39
0.000000
  0
VERTEX
  8
PIN_TOP
 10
8.763000
 20
10.196100
 40
0.000000
 41
0.000000
 42
0.000000
  0
VERTEX
  8
PIN_TOP
 10
7.823200
 20
10.196100
 40
0.000000
 41
0.000000
 42
-1.000000
  0
VERTEX
  8
PIN_TOP
 10
7.823200
 20
10.450100
 40
0.000000
 41
0.000000
 42
0.000000
  0
VERTEX
  8
PIN_TOP
 10
8.763000
 20
10.450100
 40
0.000000
 41
0.000000
 42
-1.000000
  0
SEQEND
  0
POLYLINE
  8
PIN_TOP
 66
1
 70
1
 40
0.000000
 41
0.000000
 39
0.000000
  0
VERTEX
  8
PIN_TOP
 10
8.763000
 20
10.696200
 40
0.000000
 41
0.000000
 42
0.000000
  0
VERTEX
  8
PIN_TOP
 10
7.823200
 20
10.696200
 40
0.000000
 41
0.000000
 42
-1.000000
  0
VERTEX
  8
PIN_TOP
 10
7.823200
 20
10.950200
 40
0.000000
 41
0.000000
 42
0.000000
  0
VERTEX
  8
PIN_TOP
 10
8.763000
 20
10.950200
 40
0.000000
 41
0.000000
 42
-1.000000
  0
SEQEND
  0
POLYLINE
  8
PIN_TOP
 66
1
 70
1
 40
0.000000
 41
0.000000
 39
0.000000
  0
VERTEX
  8
PIN_TOP
 10
8.763000
 20
11.196100
 40
0.000000
 41
0.000000
 42
0.000000
  0
VERTEX
  8
PIN_TOP
 10
7.823200
 20
11.196100
 40
0.000000
 41
0.000000
 42
-1.000000
  0
VERTEX
  8
PIN_TOP
 10
7.823200
 20
11.450100
 40
0.000000
 41
0.000000
 42
0.000000
  0
VERTEX
  8
PIN_TOP
 10
8.763000
 20
11.450100
 40
0.000000
 41
0.000000
 42
-1.000000
  0
SEQEND
  0
POLYLINE
  8
PIN_TOP
 66
1
 70
1
 40
0.000000
 41
0.000000
 39
0.000000
  0
VERTEX
  8
PIN_TOP
 10
8.763000
 20
11.696200
 40
0.000000
 41
0.000000
 42
0.000000
  0
VERTEX
  8
PIN_TOP
 10
7.823200
 20
11.696200
 40
0.000000
 41
0.000000
 42
-1.000000
  0
VERTEX
  8
PIN_TOP
 10
7.823200
 20
11.950200
 40
0.000000
 41
0.000000
 42
0.000000
  0
VERTEX
  8
PIN_TOP
 10
8.763000
 20
11.950200
 40
0.000000
 41
0.000000
 42
-1.000000
  0
SEQEND
  0
POLYLINE
  8
PIN_TOP
 66
1
 70
1
 40
0.000000
 41
0.000000
 39
0.000000
  0
VERTEX
  8
PIN_TOP
 10
8.763000
 20
12.196100
 40
0.000000
 41
0.000000
 42
0.000000
  0
VERTEX
  8
PIN_TOP
 10
7.823200
 20
12.196100
 40
0.000000
 41
0.000000
 42
-1.000000
  0
VERTEX
  8
PIN_TOP
 10
7.823200
 20
12.450100
 40
0.000000
 41
0.000000
 42
0.000000
  0
VERTEX
  8
PIN_TOP
 10
8.763000
 20
12.450100
 40
0.000000
 41
0.000000
 42
-1.000000
  0
SEQEND
  0
POLYLINE
  8
PIN_TOP
 66
1
 70
1
 40
0.000000
 41
0.000000
 39
0.000000
  0
VERTEX
  8
PIN_TOP
 10
8.763000
 20
12.696200
 40
0.000000
 41
0.000000
 42
0.000000
  0
VERTEX
  8
PIN_TOP
 10
7.823200
 20
12.696200
 40
0.000000
 41
0.000000
 42
-1.000000
  0
VERTEX
  8
PIN_TOP
 10
7.823200
 20
12.950200
 40
0.000000
 41
0.000000
 42
0.000000
  0
VERTEX
  8
PIN_TOP
 10
8.763000
 20
12.950200
 40
0.000000
 41
0.000000
 42
-1.000000
  0
SEQEND
  0
POLYLINE
  8
PIN_TOP
 66
1
 70
1
 40
0.000000
 41
0.000000
 39
0.000000
  0
VERTEX
  8
PIN_TOP
 10
8.763000
 20
13.196100
 40
0.000000
 41
0.000000
 42
0.000000
  0
VERTEX
  8
PIN_TOP
 10
7.823200
 20
13.196100
 40
0.000000
 41
0.000000
 42
-1.000000
  0
VERTEX
  8
PIN_TOP
 10
7.823200
 20
13.450100
 40
0.000000
 41
0.000000
 42
0.000000
  0
VERTEX
  8
PIN_TOP
 10
8.763000
 20
13.450100
 40
0.000000
 41
0.000000
 42
-1.000000
  0
SEQEND
  0
POLYLINE
  8
PIN_TOP
 66
1
 70
1
 40
0.000000
 41
0.000000
 39
0.000000
  0
VERTEX
  8
PIN_TOP
 10
8.763000
 20
13.696200
 40
0.000000
 41
0.000000
 42
0.000000
  0
VERTEX
  8
PIN_TOP
 10
7.823200
 20
13.696200
 40
0.000000
 41
0.000000
 42
-1.000000
  0
VERTEX
  8
PIN_TOP
 10
7.823200
 20
13.950200
 40
0.000000
 41
0.000000
 42
0.000000
  0
VERTEX
  8
PIN_TOP
 10
8.763000
 20
13.950200
 40
0.000000
 41
0.000000
 42
-1.000000
  0
SEQEND
  0
POLYLINE
  8
PIN_TOP
 66
1
 70
1
 40
0.000000
 41
0.000000
 39
0.000000
  0
VERTEX
  8
PIN_TOP
 10
8.763000
 20
14.196100
 40
0.000000
 41
0.000000
 42
0.000000
  0
VERTEX
  8
PIN_TOP
 10
7.823200
 20
14.196100
 40
0.000000
 41
0.000000
 42
-1.000000
  0
VERTEX
  8
PIN_TOP
 10
7.823200
 20
14.450100
 40
0.000000
 41
0.000000
 42
0.000000
  0
VERTEX
  8
PIN_TOP
 10
8.763000
 20
14.450100
 40
0.000000
 41
0.000000
 42
-1.000000
  0
SEQEND
  0
POLYLINE
  8
PIN_TOP
 66
1
 70
1
 40
0.000000
 41
0.000000
 39
0.000000
  0
VERTEX
  8
PIN_TOP
 10
8.763000
 20
14.696200
 40
0.000000
 41
0.000000
 42
0.000000
  0
VERTEX
  8
PIN_TOP
 10
7.823200
 20
14.696200
 40
0.000000
 41
0.000000
 42
-1.000000
  0
VERTEX
  8
PIN_TOP
 10
7.823200
 20
14.950200
 40
0.000000
 41
0.000000
 42
0.000000
  0
VERTEX
  8
PIN_TOP
 10
8.763000
 20
14.950200
 40
0.000000
 41
0.000000
 42
-1.000000
  0
SEQEND
  0
POLYLINE
  8
PIN_TOP
 66
1
 70
1
 40
0.000000
 41
0.000000
 39
0.000000
  0
VERTEX
  8
PIN_TOP
 10
8.763000
 20
15.196100
 40
0.000000
 41
0.000000
 42
0.000000
  0
VERTEX
  8
PIN_TOP
 10
7.823200
 20
15.196100
 40
0.000000
 41
0.000000
 42
-1.000000
  0
VERTEX
  8
PIN_TOP
 10
7.823200
 20
15.450100
 40
0.000000
 41
0.000000
 42
0.000000
  0
VERTEX
  8
PIN_TOP
 10
8.763000
 20
15.450100
 40
0.000000
 41
0.000000
 42
-1.000000
  0
SEQEND
  0
POLYLINE
  8
PIN_TOP
 66
1
 70
1
 40
0.000000
 41
0.000000
 39
0.000000
  0
VERTEX
  8
PIN_TOP
 10
8.763000
 20
15.696200
 40
0.000000
 41
0.000000
 42
0.000000
  0
VERTEX
  8
PIN_TOP
 10
7.823200
 20
15.696200
 40
0.000000
 41
0.000000
 42
-1.000000
  0
VERTEX
  8
PIN_TOP
 10
7.823200
 20
15.950200
 40
0.000000
 41
0.000000
 42
0.000000
  0
VERTEX
  8
PIN_TOP
 10
8.763000
 20
15.950200
 40
0.000000
 41
0.000000
 42
-1.000000
  0
SEQEND
  0
POLYLINE
  8
PIN_TOP
 66
1
 70
1
 40
0.000000
 41
0.000000
 39
0.000000
  0
VERTEX
  8
PIN_TOP
 10
8.763000
 20
16.196100
 40
0.000000
 41
0.000000
 42
0.000000
  0
VERTEX
  8
PIN_TOP
 10
7.823200
 20
16.196100
 40
0.000000
 41
0.000000
 42
-1.000000
  0
VERTEX
  8
PIN_TOP
 10
7.823200
 20
16.450100
 40
0.000000
 41
0.000000
 42
0.000000
  0
VERTEX
  8
PIN_TOP
 10
8.763000
 20
16.450100
 40
0.000000
 41
0.000000
 42
-1.000000
  0
SEQEND
  0
POLYLINE
  8
PIN_TOP
 66
1
 70
1
 40
0.000000
 41
0.000000
 39
0.000000
  0
VERTEX
  8
PIN_TOP
 10
8.763000
 20
16.696200
 40
0.000000
 41
0.000000
 42
0.000000
  0
VERTEX
  8
PIN_TOP
 10
7.823200
 20
16.696200
 40
0.000000
 41
0.000000
 42
-1.000000
  0
VERTEX
  8
PIN_TOP
 10
7.823200
 20
16.950200
 40
0.000000
 41
0.000000
 42
0.000000
  0
VERTEX
  8
PIN_TOP
 10
8.763000
 20
16.950200
 40
0.000000
 41
0.000000
 42
-1.000000
  0
SEQEND
  0
POLYLINE
  8
PIN_TOP
 66
1
 70
1
 40
0.000000
 41
0.000000
 39
0.000000
  0
VERTEX
  8
PIN_TOP
 10
8.763000
 20
17.196100
 40
0.000000
 41
0.000000
 42
0.000000
  0
VERTEX
  8
PIN_TOP
 10
7.823200
 20
17.196100
 40
0.000000
 41
0.000000
 42
-1.000000
  0
VERTEX
  8
PIN_TOP
 10
7.823200
 20
17.450100
 40
0.000000
 41
0.000000
 42
0.000000
  0
VERTEX
  8
PIN_TOP
 10
8.763000
 20
17.450100
 40
0.000000
 41
0.000000
 42
-1.000000
  0
SEQEND
  0
POLYLINE
  8
PIN_TOP
 66
1
 70
1
 40
0.000000
 41
0.000000
 39
0.000000
  0
VERTEX
  8
PIN_TOP
 10
8.763000
 20
17.696200
 40
0.000000
 41
0.000000
 42
0.000000
  0
VERTEX
  8
PIN_TOP
 10
7.823200
 20
17.696200
 40
0.000000
 41
0.000000
 42
-1.000000
  0
VERTEX
  8
PIN_TOP
 10
7.823200
 20
17.950200
 40
0.000000
 41
0.000000
 42
0.000000
  0
VERTEX
  8
PIN_TOP
 10
8.763000
 20
17.950200
 40
0.000000
 41
0.000000
 42
-1.000000
  0
SEQEND
  0
POLYLINE
  8
PIN_TOP
 66
1
 70
1
 40
0.000000
 41
0.000000
 39
0.000000
  0
VERTEX
  8
PIN_TOP
 10
27.682950
 20
18.196350
 40
0.000000
 41
0.000000
 42
0.000000
  0
VERTEX
  8
PIN_TOP
 10
27.682950
 20
18.646450
 40
0.000000
 41
0.000000
 42
0.000000
  0
VERTEX
  8
PIN_TOP
 10
28.882850
 20
18.646450
 40
0.000000
 41
0.000000
 42
0.000000
  0
VERTEX
  8
PIN_TOP
 10
28.882850
 20
18.196350
 40
0.000000
 41
0.000000
 42
0.000000
  0
SEQEND
  0
POLYLINE
  8
PIN_TOP
 66
1
 70
1
 40
0.000000
 41
0.000000
 39
0.000000
  0
VERTEX
  8
PIN_TOP
 10
27.682950
 20
6.499950
 40
0.000000
 41
0.000000
 42
0.000000
  0
VERTEX
  8
PIN_TOP
 10
27.682950
 20
6.950050
 40
0.000000
 41
0.000000
 42
0.000000
  0
VERTEX
  8
PIN_TOP
 10
28.882850
 20
6.950050
 40
0.000000
 41
0.000000
 42
0.000000
  0
VERTEX
  8
PIN_TOP
 10
28.882850
 20
6.499950
 40
0.000000
 41
0.000000
 42
0.000000
  0
SEQEND
  0
POLYLINE
  8
PIN_TOP
 66
1
 70
1
 40
0.000000
 41
0.000000
 39
0.000000
  0
VERTEX
  8
PIN_TOP
 10
7.693150
 20
6.499950
 40
0.000000
 41
0.000000
 42
0.000000
  0
VERTEX
  8
PIN_TOP
 10
7.693150
 20
6.950050
 40
0.000000
 41
0.000000
 42
0.000000
  0
VERTEX
  8
PIN_TOP
 10
8.893050
 20
6.950050
 40
0.000000
 41
0.000000
 42
0.000000
  0
VERTEX
  8
PIN_TOP
 10
8.893050
 20
6.499950
 40
0.000000
 41
0.000000
 42
0.000000
  0
SEQEND
  0
POLYLINE
  8
PIN_TOP
 66
1
 70
1
 40
0.000000
 41
0.000000
 39
0.000000
  0
VERTEX
  8
PIN_TOP
 10
7.693150
 20
18.196350
 40
0.000000
 41
0.000000
 42
0.000000
  0
VERTEX
  8
PIN_TOP
 10
7.693150
 20
18.646450
 40
0.000000
 41
0.000000
 42
0.000000
  0
VERTEX
  8
PIN_TOP
 10
8.893050
 20
18.646450
 40
0.000000
 41
0.000000
 42
0.000000
  0
VERTEX
  8
PIN_TOP
 10
8.893050
 20
18.196350
 40
0.000000
 41
0.000000
 42
0.000000
  0
SEQEND
  0
POLYLINE
  8
BG_SILKSCREEN_TOP
 66
1
 70
1
 40
0.000000
 41
0.000000
 39
0.000000
  0
VERTEX
  8
BG_SILKSCREEN_TOP
 10
9.731000
 20
6.512100
 40
0.152400
 41
0.152400
 42
0.000000
  0
VERTEX
  8
BG_SILKSCREEN_TOP
 10
9.731000
 20
18.577100
 40
0.152400
 41
0.152400
 42
0.000000
  0
VERTEX
  8
BG_SILKSCREEN_TOP
 10
26.876000
 20
18.577100
 40
0.152400
 41
0.152400
 42
0.000000
  0
VERTEX
  8
BG_SILKSCREEN_TOP
 10
26.876000
 20
6.512100
 40
0.152400
 41
0.152400
 42
0.000000
  0
SEQEND
  0
POLYLINE
  8
BG_SILKSCREEN_TOP
 66
1
 70
0
 40
0.000000
 41
0.000000
 39
0.000000
  0
VERTEX
  8
BG_SILKSCREEN_TOP
 10
17.478000
 20
18.577100
 40
0.152400
 41
0.152400
 42
1.000103
  0
VERTEX
  8
BG_SILKSCREEN_TOP
 10
18.240000
 20
18.577100
 40
0.152400
 41
0.152400
 42
0.000000
  0
SEQEND
  0
TEXT
  8
RD_SILKSCREEN_TOP
 10
8.407400
 20
5.757400
 11
0.000000
 21
0.000000
 40
0.635000
 41
0.880000
 50
0.000000
  7
STANDARD
 71
0
 72
0
  1
U3
 73
0
  0
POLYLINE
  8
PIN_TOP
 66
1
 70
1
 40
0.000000
 41
0.000000
 39
0.000000
  0
VERTEX
  8
PIN_TOP
 10
2.314200
 20
50.314100
 40
0.000000
 41
0.000000
 42
0.000000
  0
VERTEX
  8
PIN_TOP
 10
2.314200
 20
51.685700
 40
0.000000
 41
0.000000
 42
0.000000
  0
VERTEX
  8
PIN_TOP
 10
3.685800
 20
51.685700
 40
0.000000
 41
0.000000
 42
0.000000
  0
VERTEX
  8
PIN_TOP
 10
3.685800
 20
50.314100
 40
0.000000
 41
0.000000
 42
0.000000
  0
SEQEND
  0
POLYLINE
  8
PIN_IN1-LAYER3
 66
1
 70
1
 40
0.000000
 41
0.000000
 39
0.000000
  0
VERTEX
  8
PIN_IN1-LAYER3
 10
2.314200
 20
50.314100
 40
0.000000
 41
0.000000
 42
0.000000
  0
VERTEX
  8
PIN_IN1-LAYER3
 10
2.314200
 20
51.685700
 40
0.000000
 41
0.000000
 42
0.000000
  0
VERTEX
  8
PIN_IN1-LAYER3
 10
3.685800
 20
51.685700
 40
0.000000
 41
0.000000
 42
0.000000
  0
VERTEX
  8
PIN_IN1-LAYER3
 10
3.685800
 20
50.314100
 40
0.000000
 41
0.000000
 42
0.000000
  0
SEQEND
  0
POLYLINE
  8
PIN_IN2-LAYER4
 66
1
 70
1
 40
0.000000
 41
0.000000
 39
0.000000
  0
VERTEX
  8
PIN_IN2-LAYER4
 10
2.314200
 20
50.314100
 40
0.000000
 41
0.000000
 42
0.000000
  0
VERTEX
  8
PIN_IN2-LAYER4
 10
2.314200
 20
51.685700
 40
0.000000
 41
0.000000
 42
0.000000
  0
VERTEX
  8
PIN_IN2-LAYER4
 10
3.685800
 20
51.685700
 40
0.000000
 41
0.000000
 42
0.000000
  0
VERTEX
  8
PIN_IN2-LAYER4
 10
3.685800
 20
50.314100
 40
0.000000
 41
0.000000
 42
0.000000
  0
SEQEND
  0
POLYLINE
  8
PIN_IN3-LAYER6
 66
1
 70
1
 40
0.000000
 41
0.000000
 39
0.000000
  0
VERTEX
  8
PIN_IN3-LAYER6
 10
2.314200
 20
50.314100
 40
0.000000
 41
0.000000
 42
0.000000
  0
VERTEX
  8
PIN_IN3-LAYER6
 10
2.314200
 20
51.685700
 40
0.000000
 41
0.000000
 42
0.000000
  0
VERTEX
  8
PIN_IN3-LAYER6
 10
3.685800
 20
51.685700
 40
0.000000
 41
0.000000
 42
0.000000
  0
VERTEX
  8
PIN_IN3-LAYER6
 10
3.685800
 20
50.314100
 40
0.000000
 41
0.000000
 42
0.000000
  0
SEQEND
  0
POLYLINE
  8
PIN_BOTTOM
 66
1
 70
1
 40
0.000000
 41
0.000000
 39
0.000000
  0
VERTEX
  8
PIN_BOTTOM
 10
2.314200
 20
50.314100
 40
0.000000
 41
0.000000
 42
0.000000
  0
VERTEX
  8
PIN_BOTTOM
 10
2.314200
 20
51.685700
 40
0.000000
 41
0.000000
 42
0.000000
  0
VERTEX
  8
PIN_BOTTOM
 10
3.685800
 20
51.685700
 40
0.000000
 41
0.000000
 42
0.000000
  0
VERTEX
  8
PIN_BOTTOM
 10
3.685800
 20
50.314100
 40
0.000000
 41
0.000000
 42
0.000000
  0
SEQEND
  0
CIRCLE
  8
PIN_TOP
 10
5.000000
 20
50.999900
 40
0.685800
  0
CIRCLE
  8
PIN_IN1-LAYER3
 10
5.000000
 20
50.999900
 40
0.685800
  0
CIRCLE
  8
PIN_IN2-LAYER4
 10
5.000000
 20
50.999900
 40
0.685800
  0
CIRCLE
  8
PIN_IN3-LAYER6
 10
5.000000
 20
50.999900
 40
0.685800
  0
CIRCLE
  8
PIN_BOTTOM
 10
5.000000
 20
50.999900
 40
0.685800
  0
CIRCLE
  8
PIN_TOP
 10
3.000000
 20
52.999900
 40
0.685800
  0
CIRCLE
  8
PIN_IN1-LAYER3
 10
3.000000
 20
52.999900
 40
0.685800
  0
CIRCLE
  8
PIN_IN2-LAYER4
 10
3.000000
 20
52.999900
 40
0.685800
  0
CIRCLE
  8
PIN_IN3-LAYER6
 10
3.000000
 20
52.999900
 40
0.685800
  0
CIRCLE
  8
PIN_BOTTOM
 10
3.000000
 20
52.999900
 40
0.685800
  0
CIRCLE
  8
PIN_TOP
 10
5.000000
 20
52.999900
 40
0.685800
  0
CIRCLE
  8
PIN_IN1-LAYER3
 10
5.000000
 20
52.999900
 40
0.685800
  0
CIRCLE
  8
PIN_IN2-LAYER4
 10
5.000000
 20
52.999900
 40
0.685800
  0
CIRCLE
  8
PIN_IN3-LAYER6
 10
5.000000
 20
52.999900
 40
0.685800
  0
CIRCLE
  8
PIN_BOTTOM
 10
5.000000
 20
52.999900
 40
0.685800
  0
CIRCLE
  8
PIN_TOP
 10
7.000000
 20
52.999900
 40
0.685800
  0
CIRCLE
  8
PIN_IN1-LAYER3
 10
7.000000
 20
52.999900
 40
0.685800
  0
CIRCLE
  8
PIN_IN2-LAYER4
 10
7.000000
 20
52.999900
 40
0.685800
  0
CIRCLE
  8
PIN_IN3-LAYER6
 10
7.000000
 20
52.999900
 40
0.685800
  0
CIRCLE
  8
PIN_BOTTOM
 10
7.000000
 20
52.999900
 40
0.685800
  0
CIRCLE
  8
PIN_TOP
 10
7.000000
 20
50.999900
 40
0.685800
  0
CIRCLE
  8
PIN_IN1-LAYER3
 10
7.000000
 20
50.999900
 40
0.685800
  0
CIRCLE
  8
PIN_IN2-LAYER4
 10
7.000000
 20
50.999900
 40
0.685800
  0
CIRCLE
  8
PIN_IN3-LAYER6
 10
7.000000
 20
50.999900
 40
0.685800
  0
CIRCLE
  8
PIN_BOTTOM
 10
7.000000
 20
50.999900
 40
0.685800
  0
CIRCLE
  8
PIN_TOP
 10
9.000000
 20
50.999900
 40
0.685800
  0
CIRCLE
  8
PIN_IN1-LAYER3
 10
9.000000
 20
50.999900
 40
0.685800
  0
CIRCLE
  8
PIN_IN2-LAYER4
 10
9.000000
 20
50.999900
 40
0.685800
  0
CIRCLE
  8
PIN_IN3-LAYER6
 10
9.000000
 20
50.999900
 40
0.685800
  0
CIRCLE
  8
PIN_BOTTOM
 10
9.000000
 20
50.999900
 40
0.685800
  0
CIRCLE
  8
PIN_TOP
 10
9.000000
 20
52.999900
 40
0.685800
  0
CIRCLE
  8
PIN_IN1-LAYER3
 10
9.000000
 20
52.999900
 40
0.685800
  0
CIRCLE
  8
PIN_IN2-LAYER4
 10
9.000000
 20
52.999900
 40
0.685800
  0
CIRCLE
  8
PIN_IN3-LAYER6
 10
9.000000
 20
52.999900
 40
0.685800
  0
CIRCLE
  8
PIN_BOTTOM
 10
9.000000
 20
52.999900
 40
0.685800
  0
CIRCLE
  8
PIN_TOP
 10
11.000000
 20
52.999900
 40
0.685800
  0
CIRCLE
  8
PIN_IN1-LAYER3
 10
11.000000
 20
52.999900
 40
0.685800
  0
CIRCLE
  8
PIN_IN2-LAYER4
 10
11.000000
 20
52.999900
 40
0.685800
  0
CIRCLE
  8
PIN_IN3-LAYER6
 10
11.000000
 20
52.999900
 40
0.685800
  0
CIRCLE
  8
PIN_BOTTOM
 10
11.000000
 20
52.999900
 40
0.685800
  0
CIRCLE
  8
PIN_TOP
 10
11.000000
 20
50.999900
 40
0.685800
  0
CIRCLE
  8
PIN_IN1-LAYER3
 10
11.000000
 20
50.999900
 40
0.685800
  0
CIRCLE
  8
PIN_IN2-LAYER4
 10
11.000000
 20
50.999900
 40
0.685800
  0
CIRCLE
  8
PIN_IN3-LAYER6
 10
11.000000
 20
50.999900
 40
0.685800
  0
CIRCLE
  8
PIN_BOTTOM
 10
11.000000
 20
50.999900
 40
0.685800
  0
CIRCLE
  8
PIN_TOP
 10
12.999900
 20
50.999900
 40
0.685800
  0
CIRCLE
  8
PIN_IN1-LAYER3
 10
12.999900
 20
50.999900
 40
0.685800
  0
CIRCLE
  8
PIN_IN2-LAYER4
 10
12.999900
 20
50.999900
 40
0.685800
  0
CIRCLE
  8
PIN_IN3-LAYER6
 10
12.999900
 20
50.999900
 40
0.685800
  0
CIRCLE
  8
PIN_BOTTOM
 10
12.999900
 20
50.999900
 40
0.685800
  0
CIRCLE
  8
PIN_TOP
 10
12.999900
 20
52.999900
 40
0.685800
  0
CIRCLE
  8
PIN_IN1-LAYER3
 10
12.999900
 20
52.999900
 40
0.685800
  0
CIRCLE
  8
PIN_IN2-LAYER4
 10
12.999900
 20
52.999900
 40
0.685800
  0
CIRCLE
  8
PIN_IN3-LAYER6
 10
12.999900
 20
52.999900
 40
0.685800
  0
CIRCLE
  8
PIN_BOTTOM
 10
12.999900
 20
52.999900
 40
0.685800
  0
CIRCLE
  8
PIN_TOP
 10
14.999900
 20
50.999900
 40
0.685800
  0
CIRCLE
  8
PIN_IN1-LAYER3
 10
14.999900
 20
50.999900
 40
0.685800
  0
CIRCLE
  8
PIN_IN2-LAYER4
 10
14.999900
 20
50.999900
 40
0.685800
  0
CIRCLE
  8
PIN_IN3-LAYER6
 10
14.999900
 20
50.999900
 40
0.685800
  0
CIRCLE
  8
PIN_BOTTOM
 10
14.999900
 20
50.999900
 40
0.685800
  0
CIRCLE
  8
PIN_TOP
 10
14.999900
 20
52.999900
 40
0.685800
  0
CIRCLE
  8
PIN_IN1-LAYER3
 10
14.999900
 20
52.999900
 40
0.685800
  0
CIRCLE
  8
PIN_IN2-LAYER4
 10
14.999900
 20
52.999900
 40
0.685800
  0
CIRCLE
  8
PIN_IN3-LAYER6
 10
14.999900
 20
52.999900
 40
0.685800
  0
CIRCLE
  8
PIN_BOTTOM
 10
14.999900
 20
52.999900
 40
0.685800
  0
CIRCLE
  8
PIN_TOP
 10
16.999900
 20
50.999900
 40
0.685800
  0
CIRCLE
  8
PIN_IN1-LAYER3
 10
16.999900
 20
50.999900
 40
0.685800
  0
CIRCLE
  8
PIN_IN2-LAYER4
 10
16.999900
 20
50.999900
 40
0.685800
  0
CIRCLE
  8
PIN_IN3-LAYER6
 10
16.999900
 20
50.999900
 40
0.685800
  0
CIRCLE
  8
PIN_BOTTOM
 10
16.999900
 20
50.999900
 40
0.685800
  0
CIRCLE
  8
PIN_TOP
 10
16.999900
 20
52.999900
 40
0.685800
  0
CIRCLE
  8
PIN_IN1-LAYER3
 10
16.999900
 20
52.999900
 40
0.685800
  0
CIRCLE
  8
PIN_IN2-LAYER4
 10
16.999900
 20
52.999900
 40
0.685800
  0
CIRCLE
  8
PIN_IN3-LAYER6
 10
16.999900
 20
52.999900
 40
0.685800
  0
CIRCLE
  8
PIN_BOTTOM
 10
16.999900
 20
52.999900
 40
0.685800
  0
CIRCLE
  8
PIN_TOP
 10
18.999900
 20
50.999900
 40
0.685800
  0
CIRCLE
  8
PIN_IN1-LAYER3
 10
18.999900
 20
50.999900
 40
0.685800
  0
CIRCLE
  8
PIN_IN2-LAYER4
 10
18.999900
 20
50.999900
 40
0.685800
  0
CIRCLE
  8
PIN_IN3-LAYER6
 10
18.999900
 20
50.999900
 40
0.685800
  0
CIRCLE
  8
PIN_BOTTOM
 10
18.999900
 20
50.999900
 40
0.685800
  0
CIRCLE
  8
PIN_TOP
 10
18.999900
 20
52.999900
 40
0.685800
  0
CIRCLE
  8
PIN_IN1-LAYER3
 10
18.999900
 20
52.999900
 40
0.685800
  0
CIRCLE
  8
PIN_IN2-LAYER4
 10
18.999900
 20
52.999900
 40
0.685800
  0
CIRCLE
  8
PIN_IN3-LAYER6
 10
18.999900
 20
52.999900
 40
0.685800
  0
CIRCLE
  8
PIN_BOTTOM
 10
18.999900
 20
52.999900
 40
0.685800
  0
CIRCLE
  8
PIN_TOP
 10
20.999900
 20
50.999900
 40
0.685800
  0
CIRCLE
  8
PIN_IN1-LAYER3
 10
20.999900
 20
50.999900
 40
0.685800
  0
CIRCLE
  8
PIN_IN2-LAYER4
 10
20.999900
 20
50.999900
 40
0.685800
  0
CIRCLE
  8
PIN_IN3-LAYER6
 10
20.999900
 20
50.999900
 40
0.685800
  0
CIRCLE
  8
PIN_BOTTOM
 10
20.999900
 20
50.999900
 40
0.685800
  0
CIRCLE
  8
PIN_TOP
 10
20.999900
 20
52.999900
 40
0.685800
  0
CIRCLE
  8
PIN_IN1-LAYER3
 10
20.999900
 20
52.999900
 40
0.685800
  0
CIRCLE
  8
PIN_IN2-LAYER4
 10
20.999900
 20
52.999900
 40
0.685800
  0
CIRCLE
  8
PIN_IN3-LAYER6
 10
20.999900
 20
52.999900
 40
0.685800
  0
CIRCLE
  8
PIN_BOTTOM
 10
20.999900
 20
52.999900
 40
0.685800
  0
CIRCLE
  8
PIN_TOP
 10
22.999900
 20
50.999900
 40
0.685800
  0
CIRCLE
  8
PIN_IN1-LAYER3
 10
22.999900
 20
50.999900
 40
0.685800
  0
CIRCLE
  8
PIN_IN2-LAYER4
 10
22.999900
 20
50.999900
 40
0.685800
  0
CIRCLE
  8
PIN_IN3-LAYER6
 10
22.999900
 20
50.999900
 40
0.685800
  0
CIRCLE
  8
PIN_BOTTOM
 10
22.999900
 20
50.999900
 40
0.685800
  0
CIRCLE
  8
PIN_TOP
 10
22.999900
 20
52.999900
 40
0.685800
  0
CIRCLE
  8
PIN_IN1-LAYER3
 10
22.999900
 20
52.999900
 40
0.685800
  0
CIRCLE
  8
PIN_IN2-LAYER4
 10
22.999900
 20
52.999900
 40
0.685800
  0
CIRCLE
  8
PIN_IN3-LAYER6
 10
22.999900
 20
52.999900
 40
0.685800
  0
CIRCLE
  8
PIN_BOTTOM
 10
22.999900
 20
52.999900
 40
0.685800
  0
CIRCLE
  8
PIN_TOP
 10
24.999900
 20
50.999900
 40
0.685800
  0
CIRCLE
  8
PIN_IN1-LAYER3
 10
24.999900
 20
50.999900
 40
0.685800
  0
CIRCLE
  8
PIN_IN2-LAYER4
 10
24.999900
 20
50.999900
 40
0.685800
  0
CIRCLE
  8
PIN_IN3-LAYER6
 10
24.999900
 20
50.999900
 40
0.685800
  0
CIRCLE
  8
PIN_BOTTOM
 10
24.999900
 20
50.999900
 40
0.685800
  0
CIRCLE
  8
PIN_TOP
 10
24.999900
 20
52.999900
 40
0.685800
  0
CIRCLE
  8
PIN_IN1-LAYER3
 10
24.999900
 20
52.999900
 40
0.685800
  0
CIRCLE
  8
PIN_IN2-LAYER4
 10
24.999900
 20
52.999900
 40
0.685800
  0
CIRCLE
  8
PIN_IN3-LAYER6
 10
24.999900
 20
52.999900
 40
0.685800
  0
CIRCLE
  8
PIN_BOTTOM
 10
24.999900
 20
52.999900
 40
0.685800
  0
CIRCLE
  8
PIN_TOP
 10
26.999900
 20
50.999900
 40
0.685800
  0
CIRCLE
  8
PIN_IN1-LAYER3
 10
26.999900
 20
50.999900
 40
0.685800
  0
CIRCLE
  8
PIN_IN2-LAYER4
 10
26.999900
 20
50.999900
 40
0.685800
  0
CIRCLE
  8
PIN_IN3-LAYER6
 10
26.999900
 20
50.999900
 40
0.685800
  0
CIRCLE
  8
PIN_BOTTOM
 10
26.999900
 20
50.999900
 40
0.685800
  0
CIRCLE
  8
PIN_TOP
 10
26.999900
 20
52.999900
 40
0.685800
  0
CIRCLE
  8
PIN_IN1-LAYER3
 10
26.999900
 20
52.999900
 40
0.685800
  0
CIRCLE
  8
PIN_IN2-LAYER4
 10
26.999900
 20
52.999900
 40
0.685800
  0
CIRCLE
  8
PIN_IN3-LAYER6
 10
26.999900
 20
52.999900
 40
0.685800
  0
CIRCLE
  8
PIN_BOTTOM
 10
26.999900
 20
52.999900
 40
0.685800
  0
CIRCLE
  8
PIN_TOP
 10
28.999900
 20
50.999900
 40
0.685800
  0
CIRCLE
  8
PIN_IN1-LAYER3
 10
28.999900
 20
50.999900
 40
0.685800
  0
CIRCLE
  8
PIN_IN2-LAYER4
 10
28.999900
 20
50.999900
 40
0.685800
  0
CIRCLE
  8
PIN_IN3-LAYER6
 10
28.999900
 20
50.999900
 40
0.685800
  0
CIRCLE
  8
PIN_BOTTOM
 10
28.999900
 20
50.999900
 40
0.685800
  0
CIRCLE
  8
PIN_TOP
 10
28.999900
 20
52.999900
 40
0.685800
  0
CIRCLE
  8
PIN_IN1-LAYER3
 10
28.999900
 20
52.999900
 40
0.685800
  0
CIRCLE
  8
PIN_IN2-LAYER4
 10
28.999900
 20
52.999900
 40
0.685800
  0
CIRCLE
  8
PIN_IN3-LAYER6
 10
28.999900
 20
52.999900
 40
0.685800
  0
CIRCLE
  8
PIN_BOTTOM
 10
28.999900
 20
52.999900
 40
0.685800
  0
CIRCLE
  8
PIN_TOP
 10
30.999900
 20
50.999900
 40
0.685800
  0
CIRCLE
  8
PIN_IN1-LAYER3
 10
30.999900
 20
50.999900
 40
0.685800
  0
CIRCLE
  8
PIN_IN2-LAYER4
 10
30.999900
 20
50.999900
 40
0.685800
  0
CIRCLE
  8
PIN_IN3-LAYER6
 10
30.999900
 20
50.999900
 40
0.685800
  0
CIRCLE
  8
PIN_BOTTOM
 10
30.999900
 20
50.999900
 40
0.685800
  0
CIRCLE
  8
PIN_TOP
 10
30.999900
 20
52.999900
 40
0.685800
  0
CIRCLE
  8
PIN_IN1-LAYER3
 10
30.999900
 20
52.999900
 40
0.685800
  0
CIRCLE
  8
PIN_IN2-LAYER4
 10
30.999900
 20
52.999900
 40
0.685800
  0
CIRCLE
  8
PIN_IN3-LAYER6
 10
30.999900
 20
52.999900
 40
0.685800
  0
CIRCLE
  8
PIN_BOTTOM
 10
30.999900
 20
52.999900
 40
0.685800
  0
CIRCLE
  8
PIN_TOP
 10
32.999900
 20
50.999900
 40
0.685800
  0
CIRCLE
  8
PIN_IN1-LAYER3
 10
32.999900
 20
50.999900
 40
0.685800
  0
CIRCLE
  8
PIN_IN2-LAYER4
 10
32.999900
 20
50.999900
 40
0.685800
  0
CIRCLE
  8
PIN_IN3-LAYER6
 10
32.999900
 20
50.999900
 40
0.685800
  0
CIRCLE
  8
PIN_BOTTOM
 10
32.999900
 20
50.999900
 40
0.685800
  0
CIRCLE
  8
PIN_TOP
 10
32.999900
 20
52.999900
 40
0.685800
  0
CIRCLE
  8
PIN_IN1-LAYER3
 10
32.999900
 20
52.999900
 40
0.685800
  0
CIRCLE
  8
PIN_IN2-LAYER4
 10
32.999900
 20
52.999900
 40
0.685800
  0
CIRCLE
  8
PIN_IN3-LAYER6
 10
32.999900
 20
52.999900
 40
0.685800
  0
CIRCLE
  8
PIN_BOTTOM
 10
32.999900
 20
52.999900
 40
0.685800
  0
CIRCLE
  8
PIN_TOP
 10
34.999900
 20
50.999900
 40
0.685800
  0
CIRCLE
  8
PIN_IN1-LAYER3
 10
34.999900
 20
50.999900
 40
0.685800
  0
CIRCLE
  8
PIN_IN2-LAYER4
 10
34.999900
 20
50.999900
 40
0.685800
  0
CIRCLE
  8
PIN_IN3-LAYER6
 10
34.999900
 20
50.999900
 40
0.685800
  0
CIRCLE
  8
PIN_BOTTOM
 10
34.999900
 20
50.999900
 40
0.685800
  0
CIRCLE
  8
PIN_TOP
 10
34.999900
 20
52.999900
 40
0.685800
  0
CIRCLE
  8
PIN_IN1-LAYER3
 10
34.999900
 20
52.999900
 40
0.685800
  0
CIRCLE
  8
PIN_IN2-LAYER4
 10
34.999900
 20
52.999900
 40
0.685800
  0
CIRCLE
  8
PIN_IN3-LAYER6
 10
34.999900
 20
52.999900
 40
0.685800
  0
CIRCLE
  8
PIN_BOTTOM
 10
34.999900
 20
52.999900
 40
0.685800
  0
CIRCLE
  8
PIN_TOP
 10
36.999900
 20
50.999900
 40
0.685800
  0
CIRCLE
  8
PIN_IN1-LAYER3
 10
36.999900
 20
50.999900
 40
0.685800
  0
CIRCLE
  8
PIN_IN2-LAYER4
 10
36.999900
 20
50.999900
 40
0.685800
  0
CIRCLE
  8
PIN_IN3-LAYER6
 10
36.999900
 20
50.999900
 40
0.685800
  0
CIRCLE
  8
PIN_BOTTOM
 10
36.999900
 20
50.999900
 40
0.685800
  0
CIRCLE
  8
PIN_TOP
 10
36.999900
 20
52.999900
 40
0.685800
  0
CIRCLE
  8
PIN_IN1-LAYER3
 10
36.999900
 20
52.999900
 40
0.685800
  0
CIRCLE
  8
PIN_IN2-LAYER4
 10
36.999900
 20
52.999900
 40
0.685800
  0
CIRCLE
  8
PIN_IN3-LAYER6
 10
36.999900
 20
52.999900
 40
0.685800
  0
CIRCLE
  8
PIN_BOTTOM
 10
36.999900
 20
52.999900
 40
0.685800
  0
CIRCLE
  8
PIN_TOP
 10
38.999900
 20
50.999900
 40
0.685800
  0
CIRCLE
  8
PIN_IN1-LAYER3
 10
38.999900
 20
50.999900
 40
0.685800
  0
CIRCLE
  8
PIN_IN2-LAYER4
 10
38.999900
 20
50.999900
 40
0.685800
  0
CIRCLE
  8
PIN_IN3-LAYER6
 10
38.999900
 20
50.999900
 40
0.685800
  0
CIRCLE
  8
PIN_BOTTOM
 10
38.999900
 20
50.999900
 40
0.685800
  0
CIRCLE
  8
PIN_TOP
 10
38.999900
 20
52.999900
 40
0.685800
  0
CIRCLE
  8
PIN_IN1-LAYER3
 10
38.999900
 20
52.999900
 40
0.685800
  0
CIRCLE
  8
PIN_IN2-LAYER4
 10
38.999900
 20
52.999900
 40
0.685800
  0
CIRCLE
  8
PIN_IN3-LAYER6
 10
38.999900
 20
52.999900
 40
0.685800
  0
CIRCLE
  8
PIN_BOTTOM
 10
38.999900
 20
52.999900
 40
0.685800
  0
CIRCLE
  8
PIN_TOP
 10
40.999900
 20
50.999900
 40
0.685800
  0
CIRCLE
  8
PIN_IN1-LAYER3
 10
40.999900
 20
50.999900
 40
0.685800
  0
CIRCLE
  8
PIN_IN2-LAYER4
 10
40.999900
 20
50.999900
 40
0.685800
  0
CIRCLE
  8
PIN_IN3-LAYER6
 10
40.999900
 20
50.999900
 40
0.685800
  0
CIRCLE
  8
PIN_BOTTOM
 10
40.999900
 20
50.999900
 40
0.685800
  0
CIRCLE
  8
PIN_TOP
 10
40.999900
 20
52.999900
 40
0.685800
  0
CIRCLE
  8
PIN_IN1-LAYER3
 10
40.999900
 20
52.999900
 40
0.685800
  0
CIRCLE
  8
PIN_IN2-LAYER4
 10
40.999900
 20
52.999900
 40
0.685800
  0
CIRCLE
  8
PIN_IN3-LAYER6
 10
40.999900
 20
52.999900
 40
0.685800
  0
CIRCLE
  8
PIN_BOTTOM
 10
40.999900
 20
52.999900
 40
0.685800
  0
CIRCLE
  8
PIN_TOP
 10
42.999900
 20
50.999900
 40
0.685800
  0
CIRCLE
  8
PIN_IN1-LAYER3
 10
42.999900
 20
50.999900
 40
0.685800
  0
CIRCLE
  8
PIN_IN2-LAYER4
 10
42.999900
 20
50.999900
 40
0.685800
  0
CIRCLE
  8
PIN_IN3-LAYER6
 10
42.999900
 20
50.999900
 40
0.685800
  0
CIRCLE
  8
PIN_BOTTOM
 10
42.999900
 20
50.999900
 40
0.685800
  0
CIRCLE
  8
PIN_TOP
 10
42.999900
 20
52.999900
 40
0.685800
  0
CIRCLE
  8
PIN_IN1-LAYER3
 10
42.999900
 20
52.999900
 40
0.685800
  0
CIRCLE
  8
PIN_IN2-LAYER4
 10
42.999900
 20
52.999900
 40
0.685800
  0
CIRCLE
  8
PIN_IN3-LAYER6
 10
42.999900
 20
52.999900
 40
0.685800
  0
CIRCLE
  8
PIN_BOTTOM
 10
42.999900
 20
52.999900
 40
0.685800
  0
CIRCLE
  8
PIN_TOP
 10
44.999900
 20
50.999900
 40
0.685800
  0
CIRCLE
  8
PIN_IN1-LAYER3
 10
44.999900
 20
50.999900
 40
0.685800
  0
CIRCLE
  8
PIN_IN2-LAYER4
 10
44.999900
 20
50.999900
 40
0.685800
  0
CIRCLE
  8
PIN_IN3-LAYER6
 10
44.999900
 20
50.999900
 40
0.685800
  0
CIRCLE
  8
PIN_BOTTOM
 10
44.999900
 20
50.999900
 40
0.685800
  0
CIRCLE
  8
PIN_TOP
 10
44.999900
 20
52.999900
 40
0.685800
  0
CIRCLE
  8
PIN_IN1-LAYER3
 10
44.999900
 20
52.999900
 40
0.685800
  0
CIRCLE
  8
PIN_IN2-LAYER4
 10
44.999900
 20
52.999900
 40
0.685800
  0
CIRCLE
  8
PIN_IN3-LAYER6
 10
44.999900
 20
52.999900
 40
0.685800
  0
CIRCLE
  8
PIN_BOTTOM
 10
44.999900
 20
52.999900
 40
0.685800
  0
CIRCLE
  8
PIN_TOP
 10
46.999900
 20
50.999900
 40
0.685800
  0
CIRCLE
  8
PIN_IN1-LAYER3
 10
46.999900
 20
50.999900
 40
0.685800
  0
CIRCLE
  8
PIN_IN2-LAYER4
 10
46.999900
 20
50.999900
 40
0.685800
  0
CIRCLE
  8
PIN_IN3-LAYER6
 10
46.999900
 20
50.999900
 40
0.685800
  0
CIRCLE
  8
PIN_BOTTOM
 10
46.999900
 20
50.999900
 40
0.685800
  0
CIRCLE
  8
PIN_TOP
 10
46.999900
 20
52.999900
 40
0.685800
  0
CIRCLE
  8
PIN_IN1-LAYER3
 10
46.999900
 20
52.999900
 40
0.685800
  0
CIRCLE
  8
PIN_IN2-LAYER4
 10
46.999900
 20
52.999900
 40
0.685800
  0
CIRCLE
  8
PIN_IN3-LAYER6
 10
46.999900
 20
52.999900
 40
0.685800
  0
CIRCLE
  8
PIN_BOTTOM
 10
46.999900
 20
52.999900
 40
0.685800
  0
CIRCLE
  8
PIN_TOP
 10
48.999900
 20
50.999900
 40
0.685800
  0
CIRCLE
  8
PIN_IN1-LAYER3
 10
48.999900
 20
50.999900
 40
0.685800
  0
CIRCLE
  8
PIN_IN2-LAYER4
 10
48.999900
 20
50.999900
 40
0.685800
  0
CIRCLE
  8
PIN_IN3-LAYER6
 10
48.999900
 20
50.999900
 40
0.685800
  0
CIRCLE
  8
PIN_BOTTOM
 10
48.999900
 20
50.999900
 40
0.685800
  0
CIRCLE
  8
PIN_TOP
 10
48.999900
 20
52.999900
 40
0.685800
  0
CIRCLE
  8
PIN_IN1-LAYER3
 10
48.999900
 20
52.999900
 40
0.685800
  0
CIRCLE
  8
PIN_IN2-LAYER4
 10
48.999900
 20
52.999900
 40
0.685800
  0
CIRCLE
  8
PIN_IN3-LAYER6
 10
48.999900
 20
52.999900
 40
0.685800
  0
CIRCLE
  8
PIN_BOTTOM
 10
48.999900
 20
52.999900
 40
0.685800
  0
CIRCLE
  8
PIN_TOP
 10
50.999900
 20
50.999900
 40
0.685800
  0
CIRCLE
  8
PIN_IN1-LAYER3
 10
50.999900
 20
50.999900
 40
0.685800
  0
CIRCLE
  8
PIN_IN2-LAYER4
 10
50.999900
 20
50.999900
 40
0.685800
  0
CIRCLE
  8
PIN_IN3-LAYER6
 10
50.999900
 20
50.999900
 40
0.685800
  0
CIRCLE
  8
PIN_BOTTOM
 10
50.999900
 20
50.999900
 40
0.685800
  0
CIRCLE
  8
PIN_TOP
 10
50.999900
 20
52.999900
 40
0.685800
  0
CIRCLE
  8
PIN_IN1-LAYER3
 10
50.999900
 20
52.999900
 40
0.685800
  0
CIRCLE
  8
PIN_IN2-LAYER4
 10
50.999900
 20
52.999900
 40
0.685800
  0
CIRCLE
  8
PIN_IN3-LAYER6
 10
50.999900
 20
52.999900
 40
0.685800
  0
CIRCLE
  8
PIN_BOTTOM
 10
50.999900
 20
52.999900
 40
0.685800
  0
CIRCLE
  8
PIN_TOP
 10
52.999900
 20
50.999900
 40
0.685800
  0
CIRCLE
  8
PIN_IN1-LAYER3
 10
52.999900
 20
50.999900
 40
0.685800
  0
CIRCLE
  8
PIN_IN2-LAYER4
 10
52.999900
 20
50.999900
 40
0.685800
  0
CIRCLE
  8
PIN_IN3-LAYER6
 10
52.999900
 20
50.999900
 40
0.685800
  0
CIRCLE
  8
PIN_BOTTOM
 10
52.999900
 20
50.999900
 40
0.685800
  0
CIRCLE
  8
PIN_TOP
 10
52.999900
 20
52.999900
 40
0.685800
  0
CIRCLE
  8
PIN_IN1-LAYER3
 10
52.999900
 20
52.999900
 40
0.685800
  0
CIRCLE
  8
PIN_IN2-LAYER4
 10
52.999900
 20
52.999900
 40
0.685800
  0
CIRCLE
  8
PIN_IN3-LAYER6
 10
52.999900
 20
52.999900
 40
0.685800
  0
CIRCLE
  8
PIN_BOTTOM
 10
52.999900
 20
52.999900
 40
0.685800
  0
CIRCLE
  8
PIN_TOP
 10
54.999900
 20
50.999900
 40
0.685800
  0
CIRCLE
  8
PIN_IN1-LAYER3
 10
54.999900
 20
50.999900
 40
0.685800
  0
CIRCLE
  8
PIN_IN2-LAYER4
 10
54.999900
 20
50.999900
 40
0.685800
  0
CIRCLE
  8
PIN_IN3-LAYER6
 10
54.999900
 20
50.999900
 40
0.685800
  0
CIRCLE
  8
PIN_BOTTOM
 10
54.999900
 20
50.999900
 40
0.685800
  0
CIRCLE
  8
PIN_TOP
 10
54.999900
 20
52.999900
 40
0.685800
  0
CIRCLE
  8
PIN_IN1-LAYER3
 10
54.999900
 20
52.999900
 40
0.685800
  0
CIRCLE
  8
PIN_IN2-LAYER4
 10
54.999900
 20
52.999900
 40
0.685800
  0
CIRCLE
  8
PIN_IN3-LAYER6
 10
54.999900
 20
52.999900
 40
0.685800
  0
CIRCLE
  8
PIN_BOTTOM
 10
54.999900
 20
52.999900
 40
0.685800
  0
CIRCLE
  8
PIN_TOP
 10
56.999900
 20
50.999900
 40
0.685800
  0
CIRCLE
  8
PIN_IN1-LAYER3
 10
56.999900
 20
50.999900
 40
0.685800
  0
CIRCLE
  8
PIN_IN2-LAYER4
 10
56.999900
 20
50.999900
 40
0.685800
  0
CIRCLE
  8
PIN_IN3-LAYER6
 10
56.999900
 20
50.999900
 40
0.685800
  0
CIRCLE
  8
PIN_BOTTOM
 10
56.999900
 20
50.999900
 40
0.685800
  0
CIRCLE
  8
PIN_TOP
 10
56.999900
 20
52.999900
 40
0.685800
  0
CIRCLE
  8
PIN_IN1-LAYER3
 10
56.999900
 20
52.999900
 40
0.685800
  0
CIRCLE
  8
PIN_IN2-LAYER4
 10
56.999900
 20
52.999900
 40
0.685800
  0
CIRCLE
  8
PIN_IN3-LAYER6
 10
56.999900
 20
52.999900
 40
0.685800
  0
CIRCLE
  8
PIN_BOTTOM
 10
56.999900
 20
52.999900
 40
0.685800
  0
CIRCLE
  8
PIN_TOP
 10
58.999900
 20
50.999900
 40
0.685800
  0
CIRCLE
  8
PIN_IN1-LAYER3
 10
58.999900
 20
50.999900
 40
0.685800
  0
CIRCLE
  8
PIN_IN2-LAYER4
 10
58.999900
 20
50.999900
 40
0.685800
  0
CIRCLE
  8
PIN_IN3-LAYER6
 10
58.999900
 20
50.999900
 40
0.685800
  0
CIRCLE
  8
PIN_BOTTOM
 10
58.999900
 20
50.999900
 40
0.685800
  0
CIRCLE
  8
PIN_TOP
 10
58.999900
 20
52.999900
 40
0.685800
  0
CIRCLE
  8
PIN_IN1-LAYER3
 10
58.999900
 20
52.999900
 40
0.685800
  0
CIRCLE
  8
PIN_IN2-LAYER4
 10
58.999900
 20
52.999900
 40
0.685800
  0
CIRCLE
  8
PIN_IN3-LAYER6
 10
58.999900
 20
52.999900
 40
0.685800
  0
CIRCLE
  8
PIN_BOTTOM
 10
58.999900
 20
52.999900
 40
0.685800
  0
CIRCLE
  8
PIN_TOP
 10
60.999900
 20
50.999900
 40
0.685800
  0
CIRCLE
  8
PIN_IN1-LAYER3
 10
60.999900
 20
50.999900
 40
0.685800
  0
CIRCLE
  8
PIN_IN2-LAYER4
 10
60.999900
 20
50.999900
 40
0.685800
  0
CIRCLE
  8
PIN_IN3-LAYER6
 10
60.999900
 20
50.999900
 40
0.685800
  0
CIRCLE
  8
PIN_BOTTOM
 10
60.999900
 20
50.999900
 40
0.685800
  0
CIRCLE
  8
PIN_TOP
 10
60.999900
 20
52.999900
 40
0.685800
  0
CIRCLE
  8
PIN_IN1-LAYER3
 10
60.999900
 20
52.999900
 40
0.685800
  0
CIRCLE
  8
PIN_IN2-LAYER4
 10
60.999900
 20
52.999900
 40
0.685800
  0
CIRCLE
  8
PIN_IN3-LAYER6
 10
60.999900
 20
52.999900
 40
0.685800
  0
CIRCLE
  8
PIN_BOTTOM
 10
60.999900
 20
52.999900
 40
0.685800
  0
CIRCLE
  8
PIN_TOP
 10
62.999800
 20
50.999900
 40
0.685800
  0
CIRCLE
  8
PIN_IN1-LAYER3
 10
62.999800
 20
50.999900
 40
0.685800
  0
CIRCLE
  8
PIN_IN2-LAYER4
 10
62.999800
 20
50.999900
 40
0.685800
  0
CIRCLE
  8
PIN_IN3-LAYER6
 10
62.999800
 20
50.999900
 40
0.685800
  0
CIRCLE
  8
PIN_BOTTOM
 10
62.999800
 20
50.999900
 40
0.685800
  0
CIRCLE
  8
PIN_TOP
 10
64.999800
 20
50.999900
 40
0.685800
  0
CIRCLE
  8
PIN_IN1-LAYER3
 10
64.999800
 20
50.999900
 40
0.685800
  0
CIRCLE
  8
PIN_IN2-LAYER4
 10
64.999800
 20
50.999900
 40
0.685800
  0
CIRCLE
  8
PIN_IN3-LAYER6
 10
64.999800
 20
50.999900
 40
0.685800
  0
CIRCLE
  8
PIN_BOTTOM
 10
64.999800
 20
50.999900
 40
0.685800
  0
CIRCLE
  8
PIN_TOP
 10
66.999800
 20
50.999900
 40
0.685800
  0
CIRCLE
  8
PIN_IN1-LAYER3
 10
66.999800
 20
50.999900
 40
0.685800
  0
CIRCLE
  8
PIN_IN2-LAYER4
 10
66.999800
 20
50.999900
 40
0.685800
  0
CIRCLE
  8
PIN_IN3-LAYER6
 10
66.999800
 20
50.999900
 40
0.685800
  0
CIRCLE
  8
PIN_BOTTOM
 10
66.999800
 20
50.999900
 40
0.685800
  0
CIRCLE
  8
PIN_TOP
 10
68.999800
 20
50.999900
 40
0.685800
  0
CIRCLE
  8
PIN_IN1-LAYER3
 10
68.999800
 20
50.999900
 40
0.685800
  0
CIRCLE
  8
PIN_IN2-LAYER4
 10
68.999800
 20
50.999900
 40
0.685800
  0
CIRCLE
  8
PIN_IN3-LAYER6
 10
68.999800
 20
50.999900
 40
0.685800
  0
CIRCLE
  8
PIN_BOTTOM
 10
68.999800
 20
50.999900
 40
0.685800
  0
CIRCLE
  8
PIN_TOP
 10
70.999800
 20
50.999900
 40
0.685800
  0
CIRCLE
  8
PIN_IN1-LAYER3
 10
70.999800
 20
50.999900
 40
0.685800
  0
CIRCLE
  8
PIN_IN2-LAYER4
 10
70.999800
 20
50.999900
 40
0.685800
  0
CIRCLE
  8
PIN_IN3-LAYER6
 10
70.999800
 20
50.999900
 40
0.685800
  0
CIRCLE
  8
PIN_BOTTOM
 10
70.999800
 20
50.999900
 40
0.685800
  0
CIRCLE
  8
PIN_TOP
 10
62.999800
 20
52.999900
 40
0.685800
  0
CIRCLE
  8
PIN_IN1-LAYER3
 10
62.999800
 20
52.999900
 40
0.685800
  0
CIRCLE
  8
PIN_IN2-LAYER4
 10
62.999800
 20
52.999900
 40
0.685800
  0
CIRCLE
  8
PIN_IN3-LAYER6
 10
62.999800
 20
52.999900
 40
0.685800
  0
CIRCLE
  8
PIN_BOTTOM
 10
62.999800
 20
52.999900
 40
0.685800
  0
CIRCLE
  8
PIN_TOP
 10
64.999800
 20
52.999900
 40
0.685800
  0
CIRCLE
  8
PIN_IN1-LAYER3
 10
64.999800
 20
52.999900
 40
0.685800
  0
CIRCLE
  8
PIN_IN2-LAYER4
 10
64.999800
 20
52.999900
 40
0.685800
  0
CIRCLE
  8
PIN_IN3-LAYER6
 10
64.999800
 20
52.999900
 40
0.685800
  0
CIRCLE
  8
PIN_BOTTOM
 10
64.999800
 20
52.999900
 40
0.685800
  0
CIRCLE
  8
PIN_TOP
 10
66.999800
 20
52.999900
 40
0.685800
  0
CIRCLE
  8
PIN_IN1-LAYER3
 10
66.999800
 20
52.999900
 40
0.685800
  0
CIRCLE
  8
PIN_IN2-LAYER4
 10
66.999800
 20
52.999900
 40
0.685800
  0
CIRCLE
  8
PIN_IN3-LAYER6
 10
66.999800
 20
52.999900
 40
0.685800
  0
CIRCLE
  8
PIN_BOTTOM
 10
66.999800
 20
52.999900
 40
0.685800
  0
CIRCLE
  8
PIN_TOP
 10
68.999800
 20
52.999900
 40
0.685800
  0
CIRCLE
  8
PIN_IN1-LAYER3
 10
68.999800
 20
52.999900
 40
0.685800
  0
CIRCLE
  8
PIN_IN2-LAYER4
 10
68.999800
 20
52.999900
 40
0.685800
  0
CIRCLE
  8
PIN_IN3-LAYER6
 10
68.999800
 20
52.999900
 40
0.685800
  0
CIRCLE
  8
PIN_BOTTOM
 10
68.999800
 20
52.999900
 40
0.685800
  0
CIRCLE
  8
PIN_TOP
 10
70.999800
 20
52.999900
 40
0.685800
  0
CIRCLE
  8
PIN_IN1-LAYER3
 10
70.999800
 20
52.999900
 40
0.685800
  0
CIRCLE
  8
PIN_IN2-LAYER4
 10
70.999800
 20
52.999900
 40
0.685800
  0
CIRCLE
  8
PIN_IN3-LAYER6
 10
70.999800
 20
52.999900
 40
0.685800
  0
CIRCLE
  8
PIN_BOTTOM
 10
70.999800
 20
52.999900
 40
0.685800
  0
POLYLINE
  8
PG_SILKSCREEN_TOP
 66
1
 70
0
 40
0.000000
 41
0.000000
 39
0.000000
  0
VERTEX
  8
PG_SILKSCREEN_TOP
 10
2.000000
 20
54.539900
 40
0.203200
 41
0.203200
 42
0.000000
  0
VERTEX
  8
PG_SILKSCREEN_TOP
 10
72.299800
 20
54.539900
 40
0.203200
 41
0.203200
 42
0.000000
  0
VERTEX
  8
PG_SILKSCREEN_TOP
 10
72.299800
 20
49.459900
 40
0.203200
 41
0.203200
 42
0.000000
  0
VERTEX
  8
PG_SILKSCREEN_TOP
 10
2.000000
 20
49.459900
 40
0.203200
 41
0.203200
 42
0.000000
  0
SEQEND
  0
POLYLINE
  8
PG_SILKSCREEN_TOP
 66
1
 70
0
 40
0.000000
 41
0.000000
 39
0.000000
  0
VERTEX
  8
PG_SILKSCREEN_TOP
 10
2.000000
 20
54.539900
 40
0.203200
 41
0.203200
 42
0.000000
  0
VERTEX
  8
PG_SILKSCREEN_TOP
 10
1.700000
 20
54.539900
 40
0.203200
 41
0.203200
 42
0.000000
  0
VERTEX
  8
PG_SILKSCREEN_TOP
 10
1.700000
 20
49.459900
 40
0.203200
 41
0.203200
 42
0.000000
  0
VERTEX
  8
PG_SILKSCREEN_TOP
 10
2.000000
 20
49.459900
 40
0.203200
 41
0.203200
 42
0.000000
  0
SEQEND
  0
POLYLINE
  8
PG_SILKSCREEN_TOP
 66
1
 70
0
 40
0.000000
 41
0.000000
 39
0.000000
  0
VERTEX
  8
PG_SILKSCREEN_TOP
 10
37.999900
 20
51.999900
 40
0.150100
 41
0.150100
 42
0.000000
  0
VERTEX
  8
PG_SILKSCREEN_TOP
 10
36.999900
 20
51.999900
 40
0.150100
 41
0.150100
 42
0.000000
  0
VERTEX
  8
PG_SILKSCREEN_TOP
 10
36.999900
 20
52.999900
 40
0.150100
 41
0.150100
 42
0.000000
  0
SEQEND
  0
POLYLINE
  8
PG_SILKSCREEN_TOP
 66
1
 70
0
 40
0.000000
 41
0.000000
 39
0.000000
  0
VERTEX
  8
PG_SILKSCREEN_TOP
 10
35.999900
 20
51.999900
 40
0.150100
 41
0.150100
 42
0.000000
  0
VERTEX
  8
PG_SILKSCREEN_TOP
 10
36.999900
 20
51.999900
 40
0.150100
 41
0.150100
 42
0.000000
  0
VERTEX
  8
PG_SILKSCREEN_TOP
 10
36.999900
 20
50.999900
 40
0.150100
 41
0.150100
 42
0.000000
  0
SEQEND
  0
TEXT
  8
RD_SILKSCREEN_TOP
 10
72.542400
 20
51.604400
 11
0.000000
 21
0.000000
 40
0.635000
 41
0.880000
 50
0.000000
  7
STANDARD
 71
0
 72
0
  1
P1
 73
0
  0
TEXT
  8
PG_SILKSCREEN_TOP
 10
72.940333
 20
49.445400
 11
73.152000
 21
49.445400
 40
0.635000
 41
0.880000
 50
0.000000
  7
STANDARD
 71
0
 72
1
  1
69
 73
0
  0
POLYLINE
  8
PIN_TOP
 66
1
 70
1
 40
0.000000
 41
0.000000
 39
0.000000
  0
VERTEX
  8
PIN_TOP
 10
71.685600
 20
4.685800
 40
0.000000
 41
0.000000
 42
0.000000
  0
VERTEX
  8
PIN_TOP
 10
71.685600
 20
3.314200
 40
0.000000
 41
0.000000
 42
0.000000
  0
VERTEX
  8
PIN_TOP
 10
70.314000
 20
3.314200
 40
0.000000
 41
0.000000
 42
0.000000
  0
VERTEX
  8
PIN_TOP
 10
70.314000
 20
4.685800
 40
0.000000
 41
0.000000
 42
0.000000
  0
SEQEND
  0
POLYLINE
  8
PIN_IN1-LAYER3
 66
1
 70
1
 40
0.000000
 41
0.000000
 39
0.000000
  0
VERTEX
  8
PIN_IN1-LAYER3
 10
71.685600
 20
4.685800
 40
0.000000
 41
0.000000
 42
0.000000
  0
VERTEX
  8
PIN_IN1-LAYER3
 10
71.685600
 20
3.314200
 40
0.000000
 41
0.000000
 42
0.000000
  0
VERTEX
  8
PIN_IN1-LAYER3
 10
70.314000
 20
3.314200
 40
0.000000
 41
0.000000
 42
0.000000
  0
VERTEX
  8
PIN_IN1-LAYER3
 10
70.314000
 20
4.685800
 40
0.000000
 41
0.000000
 42
0.000000
  0
SEQEND
  0
POLYLINE
  8
PIN_IN2-LAYER4
 66
1
 70
1
 40
0.000000
 41
0.000000
 39
0.000000
  0
VERTEX
  8
PIN_IN2-LAYER4
 10
71.685600
 20
4.685800
 40
0.000000
 41
0.000000
 42
0.000000
  0
VERTEX
  8
PIN_IN2-LAYER4
 10
71.685600
 20
3.314200
 40
0.000000
 41
0.000000
 42
0.000000
  0
VERTEX
  8
PIN_IN2-LAYER4
 10
70.314000
 20
3.314200
 40
0.000000
 41
0.000000
 42
0.000000
  0
VERTEX
  8
PIN_IN2-LAYER4
 10
70.314000
 20
4.685800
 40
0.000000
 41
0.000000
 42
0.000000
  0
SEQEND
  0
POLYLINE
  8
PIN_IN3-LAYER6
 66
1
 70
1
 40
0.000000
 41
0.000000
 39
0.000000
  0
VERTEX
  8
PIN_IN3-LAYER6
 10
71.685600
 20
4.685800
 40
0.000000
 41
0.000000
 42
0.000000
  0
VERTEX
  8
PIN_IN3-LAYER6
 10
71.685600
 20
3.314200
 40
0.000000
 41
0.000000
 42
0.000000
  0
VERTEX
  8
PIN_IN3-LAYER6
 10
70.314000
 20
3.314200
 40
0.000000
 41
0.000000
 42
0.000000
  0
VERTEX
  8
PIN_IN3-LAYER6
 10
70.314000
 20
4.685800
 40
0.000000
 41
0.000000
 42
0.000000
  0
SEQEND
  0
POLYLINE
  8
PIN_BOTTOM
 66
1
 70
1
 40
0.000000
 41
0.000000
 39
0.000000
  0
VERTEX
  8
PIN_BOTTOM
 10
71.685600
 20
4.685800
 40
0.000000
 41
0.000000
 42
0.000000
  0
VERTEX
  8
PIN_BOTTOM
 10
71.685600
 20
3.314200
 40
0.000000
 41
0.000000
 42
0.000000
  0
VERTEX
  8
PIN_BOTTOM
 10
70.314000
 20
3.314200
 40
0.000000
 41
0.000000
 42
0.000000
  0
VERTEX
  8
PIN_BOTTOM
 10
70.314000
 20
4.685800
 40
0.000000
 41
0.000000
 42
0.000000
  0
SEQEND
  0
CIRCLE
  8
PIN_TOP
 10
68.999800
 20
4.000000
 40
0.685800
  0
CIRCLE
  8
PIN_IN1-LAYER3
 10
68.999800
 20
4.000000
 40
0.685800
  0
CIRCLE
  8
PIN_IN2-LAYER4
 10
68.999800
 20
4.000000
 40
0.685800
  0
CIRCLE
  8
PIN_IN3-LAYER6
 10
68.999800
 20
4.000000
 40
0.685800
  0
CIRCLE
  8
PIN_BOTTOM
 10
68.999800
 20
4.000000
 40
0.685800
  0
CIRCLE
  8
PIN_TOP
 10
70.999800
 20
2.000000
 40
0.685800
  0
CIRCLE
  8
PIN_IN1-LAYER3
 10
70.999800
 20
2.000000
 40
0.685800
  0
CIRCLE
  8
PIN_IN2-LAYER4
 10
70.999800
 20
2.000000
 40
0.685800
  0
CIRCLE
  8
PIN_IN3-LAYER6
 10
70.999800
 20
2.000000
 40
0.685800
  0
CIRCLE
  8
PIN_BOTTOM
 10
70.999800
 20
2.000000
 40
0.685800
  0
CIRCLE
  8
PIN_TOP
 10
68.999800
 20
2.000000
 40
0.685800
  0
CIRCLE
  8
PIN_IN1-LAYER3
 10
68.999800
 20
2.000000
 40
0.685800
  0
CIRCLE
  8
PIN_IN2-LAYER4
 10
68.999800
 20
2.000000
 40
0.685800
  0
CIRCLE
  8
PIN_IN3-LAYER6
 10
68.999800
 20
2.000000
 40
0.685800
  0
CIRCLE
  8
PIN_BOTTOM
 10
68.999800
 20
2.000000
 40
0.685800
  0
CIRCLE
  8
PIN_TOP
 10
66.999800
 20
2.000000
 40
0.685800
  0
CIRCLE
  8
PIN_IN1-LAYER3
 10
66.999800
 20
2.000000
 40
0.685800
  0
CIRCLE
  8
PIN_IN2-LAYER4
 10
66.999800
 20
2.000000
 40
0.685800
  0
CIRCLE
  8
PIN_IN3-LAYER6
 10
66.999800
 20
2.000000
 40
0.685800
  0
CIRCLE
  8
PIN_BOTTOM
 10
66.999800
 20
2.000000
 40
0.685800
  0
CIRCLE
  8
PIN_TOP
 10
66.999800
 20
4.000000
 40
0.685800
  0
CIRCLE
  8
PIN_IN1-LAYER3
 10
66.999800
 20
4.000000
 40
0.685800
  0
CIRCLE
  8
PIN_IN2-LAYER4
 10
66.999800
 20
4.000000
 40
0.685800
  0
CIRCLE
  8
PIN_IN3-LAYER6
 10
66.999800
 20
4.000000
 40
0.685800
  0
CIRCLE
  8
PIN_BOTTOM
 10
66.999800
 20
4.000000
 40
0.685800
  0
CIRCLE
  8
PIN_TOP
 10
64.999800
 20
4.000000
 40
0.685800
  0
CIRCLE
  8
PIN_IN1-LAYER3
 10
64.999800
 20
4.000000
 40
0.685800
  0
CIRCLE
  8
PIN_IN2-LAYER4
 10
64.999800
 20
4.000000
 40
0.685800
  0
CIRCLE
  8
PIN_IN3-LAYER6
 10
64.999800
 20
4.000000
 40
0.685800
  0
CIRCLE
  8
PIN_BOTTOM
 10
64.999800
 20
4.000000
 40
0.685800
  0
CIRCLE
  8
PIN_TOP
 10
64.999800
 20
2.000000
 40
0.685800
  0
CIRCLE
  8
PIN_IN1-LAYER3
 10
64.999800
 20
2.000000
 40
0.685800
  0
CIRCLE
  8
PIN_IN2-LAYER4
 10
64.999800
 20
2.000000
 40
0.685800
  0
CIRCLE
  8
PIN_IN3-LAYER6
 10
64.999800
 20
2.000000
 40
0.685800
  0
CIRCLE
  8
PIN_BOTTOM
 10
64.999800
 20
2.000000
 40
0.685800
  0
CIRCLE
  8
PIN_TOP
 10
62.999800
 20
2.000000
 40
0.685800
  0
CIRCLE
  8
PIN_IN1-LAYER3
 10
62.999800
 20
2.000000
 40
0.685800
  0
CIRCLE
  8
PIN_IN2-LAYER4
 10
62.999800
 20
2.000000
 40
0.685800
  0
CIRCLE
  8
PIN_IN3-LAYER6
 10
62.999800
 20
2.000000
 40
0.685800
  0
CIRCLE
  8
PIN_BOTTOM
 10
62.999800
 20
2.000000
 40
0.685800
  0
CIRCLE
  8
PIN_TOP
 10
62.999800
 20
4.000000
 40
0.685800
  0
CIRCLE
  8
PIN_IN1-LAYER3
 10
62.999800
 20
4.000000
 40
0.685800
  0
CIRCLE
  8
PIN_IN2-LAYER4
 10
62.999800
 20
4.000000
 40
0.685800
  0
CIRCLE
  8
PIN_IN3-LAYER6
 10
62.999800
 20
4.000000
 40
0.685800
  0
CIRCLE
  8
PIN_BOTTOM
 10
62.999800
 20
4.000000
 40
0.685800
  0
CIRCLE
  8
PIN_TOP
 10
60.999900
 20
4.000000
 40
0.685800
  0
CIRCLE
  8
PIN_IN1-LAYER3
 10
60.999900
 20
4.000000
 40
0.685800
  0
CIRCLE
  8
PIN_IN2-LAYER4
 10
60.999900
 20
4.000000
 40
0.685800
  0
CIRCLE
  8
PIN_IN3-LAYER6
 10
60.999900
 20
4.000000
 40
0.685800
  0
CIRCLE
  8
PIN_BOTTOM
 10
60.999900
 20
4.000000
 40
0.685800
  0
CIRCLE
  8
PIN_TOP
 10
60.999900
 20
2.000000
 40
0.685800
  0
CIRCLE
  8
PIN_IN1-LAYER3
 10
60.999900
 20
2.000000
 40
0.685800
  0
CIRCLE
  8
PIN_IN2-LAYER4
 10
60.999900
 20
2.000000
 40
0.685800
  0
CIRCLE
  8
PIN_IN3-LAYER6
 10
60.999900
 20
2.000000
 40
0.685800
  0
CIRCLE
  8
PIN_BOTTOM
 10
60.999900
 20
2.000000
 40
0.685800
  0
CIRCLE
  8
PIN_TOP
 10
58.999900
 20
4.000000
 40
0.685800
  0
CIRCLE
  8
PIN_IN1-LAYER3
 10
58.999900
 20
4.000000
 40
0.685800
  0
CIRCLE
  8
PIN_IN2-LAYER4
 10
58.999900
 20
4.000000
 40
0.685800
  0
CIRCLE
  8
PIN_IN3-LAYER6
 10
58.999900
 20
4.000000
 40
0.685800
  0
CIRCLE
  8
PIN_BOTTOM
 10
58.999900
 20
4.000000
 40
0.685800
  0
CIRCLE
  8
PIN_TOP
 10
58.999900
 20
2.000000
 40
0.685800
  0
CIRCLE
  8
PIN_IN1-LAYER3
 10
58.999900
 20
2.000000
 40
0.685800
  0
CIRCLE
  8
PIN_IN2-LAYER4
 10
58.999900
 20
2.000000
 40
0.685800
  0
CIRCLE
  8
PIN_IN3-LAYER6
 10
58.999900
 20
2.000000
 40
0.685800
  0
CIRCLE
  8
PIN_BOTTOM
 10
58.999900
 20
2.000000
 40
0.685800
  0
CIRCLE
  8
PIN_TOP
 10
56.999900
 20
4.000000
 40
0.685800
  0
CIRCLE
  8
PIN_IN1-LAYER3
 10
56.999900
 20
4.000000
 40
0.685800
  0
CIRCLE
  8
PIN_IN2-LAYER4
 10
56.999900
 20
4.000000
 40
0.685800
  0
CIRCLE
  8
PIN_IN3-LAYER6
 10
56.999900
 20
4.000000
 40
0.685800
  0
CIRCLE
  8
PIN_BOTTOM
 10
56.999900
 20
4.000000
 40
0.685800
  0
CIRCLE
  8
PIN_TOP
 10
56.999900
 20
2.000000
 40
0.685800
  0
CIRCLE
  8
PIN_IN1-LAYER3
 10
56.999900
 20
2.000000
 40
0.685800
  0
CIRCLE
  8
PIN_IN2-LAYER4
 10
56.999900
 20
2.000000
 40
0.685800
  0
CIRCLE
  8
PIN_IN3-LAYER6
 10
56.999900
 20
2.000000
 40
0.685800
  0
CIRCLE
  8
PIN_BOTTOM
 10
56.999900
 20
2.000000
 40
0.685800
  0
CIRCLE
  8
PIN_TOP
 10
54.999900
 20
4.000000
 40
0.685800
  0
CIRCLE
  8
PIN_IN1-LAYER3
 10
54.999900
 20
4.000000
 40
0.685800
  0
CIRCLE
  8
PIN_IN2-LAYER4
 10
54.999900
 20
4.000000
 40
0.685800
  0
CIRCLE
  8
PIN_IN3-LAYER6
 10
54.999900
 20
4.000000
 40
0.685800
  0
CIRCLE
  8
PIN_BOTTOM
 10
54.999900
 20
4.000000
 40
0.685800
  0
CIRCLE
  8
PIN_TOP
 10
54.999900
 20
2.000000
 40
0.685800
  0
CIRCLE
  8
PIN_IN1-LAYER3
 10
54.999900
 20
2.000000
 40
0.685800
  0
CIRCLE
  8
PIN_IN2-LAYER4
 10
54.999900
 20
2.000000
 40
0.685800
  0
CIRCLE
  8
PIN_IN3-LAYER6
 10
54.999900
 20
2.000000
 40
0.685800
  0
CIRCLE
  8
PIN_BOTTOM
 10
54.999900
 20
2.000000
 40
0.685800
  0
CIRCLE
  8
PIN_TOP
 10
52.999900
 20
4.000000
 40
0.685800
  0
CIRCLE
  8
PIN_IN1-LAYER3
 10
52.999900
 20
4.000000
 40
0.685800
  0
CIRCLE
  8
PIN_IN2-LAYER4
 10
52.999900
 20
4.000000
 40
0.685800
  0
CIRCLE
  8
PIN_IN3-LAYER6
 10
52.999900
 20
4.000000
 40
0.685800
  0
CIRCLE
  8
PIN_BOTTOM
 10
52.999900
 20
4.000000
 40
0.685800
  0
CIRCLE
  8
PIN_TOP
 10
52.999900
 20
2.000000
 40
0.685800
  0
CIRCLE
  8
PIN_IN1-LAYER3
 10
52.999900
 20
2.000000
 40
0.685800
  0
CIRCLE
  8
PIN_IN2-LAYER4
 10
52.999900
 20
2.000000
 40
0.685800
  0
CIRCLE
  8
PIN_IN3-LAYER6
 10
52.999900
 20
2.000000
 40
0.685800
  0
CIRCLE
  8
PIN_BOTTOM
 10
52.999900
 20
2.000000
 40
0.685800
  0
CIRCLE
  8
PIN_TOP
 10
50.999900
 20
4.000000
 40
0.685800
  0
CIRCLE
  8
PIN_IN1-LAYER3
 10
50.999900
 20
4.000000
 40
0.685800
  0
CIRCLE
  8
PIN_IN2-LAYER4
 10
50.999900
 20
4.000000
 40
0.685800
  0
CIRCLE
  8
PIN_IN3-LAYER6
 10
50.999900
 20
4.000000
 40
0.685800
  0
CIRCLE
  8
PIN_BOTTOM
 10
50.999900
 20
4.000000
 40
0.685800
  0
CIRCLE
  8
PIN_TOP
 10
50.999900
 20
2.000000
 40
0.685800
  0
CIRCLE
  8
PIN_IN1-LAYER3
 10
50.999900
 20
2.000000
 40
0.685800
  0
CIRCLE
  8
PIN_IN2-LAYER4
 10
50.999900
 20
2.000000
 40
0.685800
  0
CIRCLE
  8
PIN_IN3-LAYER6
 10
50.999900
 20
2.000000
 40
0.685800
  0
CIRCLE
  8
PIN_BOTTOM
 10
50.999900
 20
2.000000
 40
0.685800
  0
CIRCLE
  8
PIN_TOP
 10
48.999900
 20
4.000000
 40
0.685800
  0
CIRCLE
  8
PIN_IN1-LAYER3
 10
48.999900
 20
4.000000
 40
0.685800
  0
CIRCLE
  8
PIN_IN2-LAYER4
 10
48.999900
 20
4.000000
 40
0.685800
  0
CIRCLE
  8
PIN_IN3-LAYER6
 10
48.999900
 20
4.000000
 40
0.685800
  0
CIRCLE
  8
PIN_BOTTOM
 10
48.999900
 20
4.000000
 40
0.685800
  0
CIRCLE
  8
PIN_TOP
 10
48.999900
 20
2.000000
 40
0.685800
  0
CIRCLE
  8
PIN_IN1-LAYER3
 10
48.999900
 20
2.000000
 40
0.685800
  0
CIRCLE
  8
PIN_IN2-LAYER4
 10
48.999900
 20
2.000000
 40
0.685800
  0
CIRCLE
  8
PIN_IN3-LAYER6
 10
48.999900
 20
2.000000
 40
0.685800
  0
CIRCLE
  8
PIN_BOTTOM
 10
48.999900
 20
2.000000
 40
0.685800
  0
CIRCLE
  8
PIN_TOP
 10
46.999900
 20
4.000000
 40
0.685800
  0
CIRCLE
  8
PIN_IN1-LAYER3
 10
46.999900
 20
4.000000
 40
0.685800
  0
CIRCLE
  8
PIN_IN2-LAYER4
 10
46.999900
 20
4.000000
 40
0.685800
  0
CIRCLE
  8
PIN_IN3-LAYER6
 10
46.999900
 20
4.000000
 40
0.685800
  0
CIRCLE
  8
PIN_BOTTOM
 10
46.999900
 20
4.000000
 40
0.685800
  0
CIRCLE
  8
PIN_TOP
 10
46.999900
 20
2.000000
 40
0.685800
  0
CIRCLE
  8
PIN_IN1-LAYER3
 10
46.999900
 20
2.000000
 40
0.685800
  0
CIRCLE
  8
PIN_IN2-LAYER4
 10
46.999900
 20
2.000000
 40
0.685800
  0
CIRCLE
  8
PIN_IN3-LAYER6
 10
46.999900
 20
2.000000
 40
0.685800
  0
CIRCLE
  8
PIN_BOTTOM
 10
46.999900
 20
2.000000
 40
0.685800
  0
CIRCLE
  8
PIN_TOP
 10
44.999900
 20
4.000000
 40
0.685800
  0
CIRCLE
  8
PIN_IN1-LAYER3
 10
44.999900
 20
4.000000
 40
0.685800
  0
CIRCLE
  8
PIN_IN2-LAYER4
 10
44.999900
 20
4.000000
 40
0.685800
  0
CIRCLE
  8
PIN_IN3-LAYER6
 10
44.999900
 20
4.000000
 40
0.685800
  0
CIRCLE
  8
PIN_BOTTOM
 10
44.999900
 20
4.000000
 40
0.685800
  0
CIRCLE
  8
PIN_TOP
 10
44.999900
 20
2.000000
 40
0.685800
  0
CIRCLE
  8
PIN_IN1-LAYER3
 10
44.999900
 20
2.000000
 40
0.685800
  0
CIRCLE
  8
PIN_IN2-LAYER4
 10
44.999900
 20
2.000000
 40
0.685800
  0
CIRCLE
  8
PIN_IN3-LAYER6
 10
44.999900
 20
2.000000
 40
0.685800
  0
CIRCLE
  8
PIN_BOTTOM
 10
44.999900
 20
2.000000
 40
0.685800
  0
CIRCLE
  8
PIN_TOP
 10
42.999900
 20
4.000000
 40
0.685800
  0
CIRCLE
  8
PIN_IN1-LAYER3
 10
42.999900
 20
4.000000
 40
0.685800
  0
CIRCLE
  8
PIN_IN2-LAYER4
 10
42.999900
 20
4.000000
 40
0.685800
  0
CIRCLE
  8
PIN_IN3-LAYER6
 10
42.999900
 20
4.000000
 40
0.685800
  0
CIRCLE
  8
PIN_BOTTOM
 10
42.999900
 20
4.000000
 40
0.685800
  0
CIRCLE
  8
PIN_TOP
 10
42.999900
 20
2.000000
 40
0.685800
  0
CIRCLE
  8
PIN_IN1-LAYER3
 10
42.999900
 20
2.000000
 40
0.685800
  0
CIRCLE
  8
PIN_IN2-LAYER4
 10
42.999900
 20
2.000000
 40
0.685800
  0
CIRCLE
  8
PIN_IN3-LAYER6
 10
42.999900
 20
2.000000
 40
0.685800
  0
CIRCLE
  8
PIN_BOTTOM
 10
42.999900
 20
2.000000
 40
0.685800
  0
CIRCLE
  8
PIN_TOP
 10
40.999900
 20
4.000000
 40
0.685800
  0
CIRCLE
  8
PIN_IN1-LAYER3
 10
40.999900
 20
4.000000
 40
0.685800
  0
CIRCLE
  8
PIN_IN2-LAYER4
 10
40.999900
 20
4.000000
 40
0.685800
  0
CIRCLE
  8
PIN_IN3-LAYER6
 10
40.999900
 20
4.000000
 40
0.685800
  0
CIRCLE
  8
PIN_BOTTOM
 10
40.999900
 20
4.000000
 40
0.685800
  0
CIRCLE
  8
PIN_TOP
 10
40.999900
 20
2.000000
 40
0.685800
  0
CIRCLE
  8
PIN_IN1-LAYER3
 10
40.999900
 20
2.000000
 40
0.685800
  0
CIRCLE
  8
PIN_IN2-LAYER4
 10
40.999900
 20
2.000000
 40
0.685800
  0
CIRCLE
  8
PIN_IN3-LAYER6
 10
40.999900
 20
2.000000
 40
0.685800
  0
CIRCLE
  8
PIN_BOTTOM
 10
40.999900
 20
2.000000
 40
0.685800
  0
CIRCLE
  8
PIN_TOP
 10
38.999900
 20
4.000000
 40
0.685800
  0
CIRCLE
  8
PIN_IN1-LAYER3
 10
38.999900
 20
4.000000
 40
0.685800
  0
CIRCLE
  8
PIN_IN2-LAYER4
 10
38.999900
 20
4.000000
 40
0.685800
  0
CIRCLE
  8
PIN_IN3-LAYER6
 10
38.999900
 20
4.000000
 40
0.685800
  0
CIRCLE
  8
PIN_BOTTOM
 10
38.999900
 20
4.000000
 40
0.685800
  0
CIRCLE
  8
PIN_TOP
 10
38.999900
 20
2.000000
 40
0.685800
  0
CIRCLE
  8
PIN_IN1-LAYER3
 10
38.999900
 20
2.000000
 40
0.685800
  0
CIRCLE
  8
PIN_IN2-LAYER4
 10
38.999900
 20
2.000000
 40
0.685800
  0
CIRCLE
  8
PIN_IN3-LAYER6
 10
38.999900
 20
2.000000
 40
0.685800
  0
CIRCLE
  8
PIN_BOTTOM
 10
38.999900
 20
2.000000
 40
0.685800
  0
CIRCLE
  8
PIN_TOP
 10
36.999900
 20
4.000000
 40
0.685800
  0
CIRCLE
  8
PIN_IN1-LAYER3
 10
36.999900
 20
4.000000
 40
0.685800
  0
CIRCLE
  8
PIN_IN2-LAYER4
 10
36.999900
 20
4.000000
 40
0.685800
  0
CIRCLE
  8
PIN_IN3-LAYER6
 10
36.999900
 20
4.000000
 40
0.685800
  0
CIRCLE
  8
PIN_BOTTOM
 10
36.999900
 20
4.000000
 40
0.685800
  0
CIRCLE
  8
PIN_TOP
 10
36.999900
 20
2.000000
 40
0.685800
  0
CIRCLE
  8
PIN_IN1-LAYER3
 10
36.999900
 20
2.000000
 40
0.685800
  0
CIRCLE
  8
PIN_IN2-LAYER4
 10
36.999900
 20
2.000000
 40
0.685800
  0
CIRCLE
  8
PIN_IN3-LAYER6
 10
36.999900
 20
2.000000
 40
0.685800
  0
CIRCLE
  8
PIN_BOTTOM
 10
36.999900
 20
2.000000
 40
0.685800
  0
CIRCLE
  8
PIN_TOP
 10
34.999900
 20
4.000000
 40
0.685800
  0
CIRCLE
  8
PIN_IN1-LAYER3
 10
34.999900
 20
4.000000
 40
0.685800
  0
CIRCLE
  8
PIN_IN2-LAYER4
 10
34.999900
 20
4.000000
 40
0.685800
  0
CIRCLE
  8
PIN_IN3-LAYER6
 10
34.999900
 20
4.000000
 40
0.685800
  0
CIRCLE
  8
PIN_BOTTOM
 10
34.999900
 20
4.000000
 40
0.685800
  0
CIRCLE
  8
PIN_TOP
 10
34.999900
 20
2.000000
 40
0.685800
  0
CIRCLE
  8
PIN_IN1-LAYER3
 10
34.999900
 20
2.000000
 40
0.685800
  0
CIRCLE
  8
PIN_IN2-LAYER4
 10
34.999900
 20
2.000000
 40
0.685800
  0
CIRCLE
  8
PIN_IN3-LAYER6
 10
34.999900
 20
2.000000
 40
0.685800
  0
CIRCLE
  8
PIN_BOTTOM
 10
34.999900
 20
2.000000
 40
0.685800
  0
CIRCLE
  8
PIN_TOP
 10
32.999900
 20
4.000000
 40
0.685800
  0
CIRCLE
  8
PIN_IN1-LAYER3
 10
32.999900
 20
4.000000
 40
0.685800
  0
CIRCLE
  8
PIN_IN2-LAYER4
 10
32.999900
 20
4.000000
 40
0.685800
  0
CIRCLE
  8
PIN_IN3-LAYER6
 10
32.999900
 20
4.000000
 40
0.685800
  0
CIRCLE
  8
PIN_BOTTOM
 10
32.999900
 20
4.000000
 40
0.685800
  0
CIRCLE
  8
PIN_TOP
 10
32.999900
 20
2.000000
 40
0.685800
  0
CIRCLE
  8
PIN_IN1-LAYER3
 10
32.999900
 20
2.000000
 40
0.685800
  0
CIRCLE
  8
PIN_IN2-LAYER4
 10
32.999900
 20
2.000000
 40
0.685800
  0
CIRCLE
  8
PIN_IN3-LAYER6
 10
32.999900
 20
2.000000
 40
0.685800
  0
CIRCLE
  8
PIN_BOTTOM
 10
32.999900
 20
2.000000
 40
0.685800
  0
CIRCLE
  8
PIN_TOP
 10
30.999900
 20
4.000000
 40
0.685800
  0
CIRCLE
  8
PIN_IN1-LAYER3
 10
30.999900
 20
4.000000
 40
0.685800
  0
CIRCLE
  8
PIN_IN2-LAYER4
 10
30.999900
 20
4.000000
 40
0.685800
  0
CIRCLE
  8
PIN_IN3-LAYER6
 10
30.999900
 20
4.000000
 40
0.685800
  0
CIRCLE
  8
PIN_BOTTOM
 10
30.999900
 20
4.000000
 40
0.685800
  0
CIRCLE
  8
PIN_TOP
 10
30.999900
 20
2.000000
 40
0.685800
  0
CIRCLE
  8
PIN_IN1-LAYER3
 10
30.999900
 20
2.000000
 40
0.685800
  0
CIRCLE
  8
PIN_IN2-LAYER4
 10
30.999900
 20
2.000000
 40
0.685800
  0
CIRCLE
  8
PIN_IN3-LAYER6
 10
30.999900
 20
2.000000
 40
0.685800
  0
CIRCLE
  8
PIN_BOTTOM
 10
30.999900
 20
2.000000
 40
0.685800
  0
CIRCLE
  8
PIN_TOP
 10
28.999900
 20
4.000000
 40
0.685800
  0
CIRCLE
  8
PIN_IN1-LAYER3
 10
28.999900
 20
4.000000
 40
0.685800
  0
CIRCLE
  8
PIN_IN2-LAYER4
 10
28.999900
 20
4.000000
 40
0.685800
  0
CIRCLE
  8
PIN_IN3-LAYER6
 10
28.999900
 20
4.000000
 40
0.685800
  0
CIRCLE
  8
PIN_BOTTOM
 10
28.999900
 20
4.000000
 40
0.685800
  0
CIRCLE
  8
PIN_TOP
 10
28.999900
 20
2.000000
 40
0.685800
  0
CIRCLE
  8
PIN_IN1-LAYER3
 10
28.999900
 20
2.000000
 40
0.685800
  0
CIRCLE
  8
PIN_IN2-LAYER4
 10
28.999900
 20
2.000000
 40
0.685800
  0
CIRCLE
  8
PIN_IN3-LAYER6
 10
28.999900
 20
2.000000
 40
0.685800
  0
CIRCLE
  8
PIN_BOTTOM
 10
28.999900
 20
2.000000
 40
0.685800
  0
CIRCLE
  8
PIN_TOP
 10
26.999900
 20
4.000000
 40
0.685800
  0
CIRCLE
  8
PIN_IN1-LAYER3
 10
26.999900
 20
4.000000
 40
0.685800
  0
CIRCLE
  8
PIN_IN2-LAYER4
 10
26.999900
 20
4.000000
 40
0.685800
  0
CIRCLE
  8
PIN_IN3-LAYER6
 10
26.999900
 20
4.000000
 40
0.685800
  0
CIRCLE
  8
PIN_BOTTOM
 10
26.999900
 20
4.000000
 40
0.685800
  0
CIRCLE
  8
PIN_TOP
 10
26.999900
 20
2.000000
 40
0.685800
  0
CIRCLE
  8
PIN_IN1-LAYER3
 10
26.999900
 20
2.000000
 40
0.685800
  0
CIRCLE
  8
PIN_IN2-LAYER4
 10
26.999900
 20
2.000000
 40
0.685800
  0
CIRCLE
  8
PIN_IN3-LAYER6
 10
26.999900
 20
2.000000
 40
0.685800
  0
CIRCLE
  8
PIN_BOTTOM
 10
26.999900
 20
2.000000
 40
0.685800
  0
CIRCLE
  8
PIN_TOP
 10
24.999900
 20
4.000000
 40
0.685800
  0
CIRCLE
  8
PIN_IN1-LAYER3
 10
24.999900
 20
4.000000
 40
0.685800
  0
CIRCLE
  8
PIN_IN2-LAYER4
 10
24.999900
 20
4.000000
 40
0.685800
  0
CIRCLE
  8
PIN_IN3-LAYER6
 10
24.999900
 20
4.000000
 40
0.685800
  0
CIRCLE
  8
PIN_BOTTOM
 10
24.999900
 20
4.000000
 40
0.685800
  0
CIRCLE
  8
PIN_TOP
 10
24.999900
 20
2.000000
 40
0.685800
  0
CIRCLE
  8
PIN_IN1-LAYER3
 10
24.999900
 20
2.000000
 40
0.685800
  0
CIRCLE
  8
PIN_IN2-LAYER4
 10
24.999900
 20
2.000000
 40
0.685800
  0
CIRCLE
  8
PIN_IN3-LAYER6
 10
24.999900
 20
2.000000
 40
0.685800
  0
CIRCLE
  8
PIN_BOTTOM
 10
24.999900
 20
2.000000
 40
0.685800
  0
CIRCLE
  8
PIN_TOP
 10
22.999900
 20
4.000000
 40
0.685800
  0
CIRCLE
  8
PIN_IN1-LAYER3
 10
22.999900
 20
4.000000
 40
0.685800
  0
CIRCLE
  8
PIN_IN2-LAYER4
 10
22.999900
 20
4.000000
 40
0.685800
  0
CIRCLE
  8
PIN_IN3-LAYER6
 10
22.999900
 20
4.000000
 40
0.685800
  0
CIRCLE
  8
PIN_BOTTOM
 10
22.999900
 20
4.000000
 40
0.685800
  0
CIRCLE
  8
PIN_TOP
 10
22.999900
 20
2.000000
 40
0.685800
  0
CIRCLE
  8
PIN_IN1-LAYER3
 10
22.999900
 20
2.000000
 40
0.685800
  0
CIRCLE
  8
PIN_IN2-LAYER4
 10
22.999900
 20
2.000000
 40
0.685800
  0
CIRCLE
  8
PIN_IN3-LAYER6
 10
22.999900
 20
2.000000
 40
0.685800
  0
CIRCLE
  8
PIN_BOTTOM
 10
22.999900
 20
2.000000
 40
0.685800
  0
CIRCLE
  8
PIN_TOP
 10
20.999900
 20
4.000000
 40
0.685800
  0
CIRCLE
  8
PIN_IN1-LAYER3
 10
20.999900
 20
4.000000
 40
0.685800
  0
CIRCLE
  8
PIN_IN2-LAYER4
 10
20.999900
 20
4.000000
 40
0.685800
  0
CIRCLE
  8
PIN_IN3-LAYER6
 10
20.999900
 20
4.000000
 40
0.685800
  0
CIRCLE
  8
PIN_BOTTOM
 10
20.999900
 20
4.000000
 40
0.685800
  0
CIRCLE
  8
PIN_TOP
 10
20.999900
 20
2.000000
 40
0.685800
  0
CIRCLE
  8
PIN_IN1-LAYER3
 10
20.999900
 20
2.000000
 40
0.685800
  0
CIRCLE
  8
PIN_IN2-LAYER4
 10
20.999900
 20
2.000000
 40
0.685800
  0
CIRCLE
  8
PIN_IN3-LAYER6
 10
20.999900
 20
2.000000
 40
0.685800
  0
CIRCLE
  8
PIN_BOTTOM
 10
20.999900
 20
2.000000
 40
0.685800
  0
CIRCLE
  8
PIN_TOP
 10
18.999900
 20
4.000000
 40
0.685800
  0
CIRCLE
  8
PIN_IN1-LAYER3
 10
18.999900
 20
4.000000
 40
0.685800
  0
CIRCLE
  8
PIN_IN2-LAYER4
 10
18.999900
 20
4.000000
 40
0.685800
  0
CIRCLE
  8
PIN_IN3-LAYER6
 10
18.999900
 20
4.000000
 40
0.685800
  0
CIRCLE
  8
PIN_BOTTOM
 10
18.999900
 20
4.000000
 40
0.685800
  0
CIRCLE
  8
PIN_TOP
 10
18.999900
 20
2.000000
 40
0.685800
  0
CIRCLE
  8
PIN_IN1-LAYER3
 10
18.999900
 20
2.000000
 40
0.685800
  0
CIRCLE
  8
PIN_IN2-LAYER4
 10
18.999900
 20
2.000000
 40
0.685800
  0
CIRCLE
  8
PIN_IN3-LAYER6
 10
18.999900
 20
2.000000
 40
0.685800
  0
CIRCLE
  8
PIN_BOTTOM
 10
18.999900
 20
2.000000
 40
0.685800
  0
CIRCLE
  8
PIN_TOP
 10
16.999900
 20
4.000000
 40
0.685800
  0
CIRCLE
  8
PIN_IN1-LAYER3
 10
16.999900
 20
4.000000
 40
0.685800
  0
CIRCLE
  8
PIN_IN2-LAYER4
 10
16.999900
 20
4.000000
 40
0.685800
  0
CIRCLE
  8
PIN_IN3-LAYER6
 10
16.999900
 20
4.000000
 40
0.685800
  0
CIRCLE
  8
PIN_BOTTOM
 10
16.999900
 20
4.000000
 40
0.685800
  0
CIRCLE
  8
PIN_TOP
 10
16.999900
 20
2.000000
 40
0.685800
  0
CIRCLE
  8
PIN_IN1-LAYER3
 10
16.999900
 20
2.000000
 40
0.685800
  0
CIRCLE
  8
PIN_IN2-LAYER4
 10
16.999900
 20
2.000000
 40
0.685800
  0
CIRCLE
  8
PIN_IN3-LAYER6
 10
16.999900
 20
2.000000
 40
0.685800
  0
CIRCLE
  8
PIN_BOTTOM
 10
16.999900
 20
2.000000
 40
0.685800
  0
CIRCLE
  8
PIN_TOP
 10
14.999900
 20
4.000000
 40
0.685800
  0
CIRCLE
  8
PIN_IN1-LAYER3
 10
14.999900
 20
4.000000
 40
0.685800
  0
CIRCLE
  8
PIN_IN2-LAYER4
 10
14.999900
 20
4.000000
 40
0.685800
  0
CIRCLE
  8
PIN_IN3-LAYER6
 10
14.999900
 20
4.000000
 40
0.685800
  0
CIRCLE
  8
PIN_BOTTOM
 10
14.999900
 20
4.000000
 40
0.685800
  0
CIRCLE
  8
PIN_TOP
 10
14.999900
 20
2.000000
 40
0.685800
  0
CIRCLE
  8
PIN_IN1-LAYER3
 10
14.999900
 20
2.000000
 40
0.685800
  0
CIRCLE
  8
PIN_IN2-LAYER4
 10
14.999900
 20
2.000000
 40
0.685800
  0
CIRCLE
  8
PIN_IN3-LAYER6
 10
14.999900
 20
2.000000
 40
0.685800
  0
CIRCLE
  8
PIN_BOTTOM
 10
14.999900
 20
2.000000
 40
0.685800
  0
CIRCLE
  8
PIN_TOP
 10
12.999900
 20
4.000000
 40
0.685800
  0
CIRCLE
  8
PIN_IN1-LAYER3
 10
12.999900
 20
4.000000
 40
0.685800
  0
CIRCLE
  8
PIN_IN2-LAYER4
 10
12.999900
 20
4.000000
 40
0.685800
  0
CIRCLE
  8
PIN_IN3-LAYER6
 10
12.999900
 20
4.000000
 40
0.685800
  0
CIRCLE
  8
PIN_BOTTOM
 10
12.999900
 20
4.000000
 40
0.685800
  0
CIRCLE
  8
PIN_TOP
 10
12.999900
 20
2.000000
 40
0.685800
  0
CIRCLE
  8
PIN_IN1-LAYER3
 10
12.999900
 20
2.000000
 40
0.685800
  0
CIRCLE
  8
PIN_IN2-LAYER4
 10
12.999900
 20
2.000000
 40
0.685800
  0
CIRCLE
  8
PIN_IN3-LAYER6
 10
12.999900
 20
2.000000
 40
0.685800
  0
CIRCLE
  8
PIN_BOTTOM
 10
12.999900
 20
2.000000
 40
0.685800
  0
CIRCLE
  8
PIN_TOP
 10
11.000000
 20
4.000000
 40
0.685800
  0
CIRCLE
  8
PIN_IN1-LAYER3
 10
11.000000
 20
4.000000
 40
0.685800
  0
CIRCLE
  8
PIN_IN2-LAYER4
 10
11.000000
 20
4.000000
 40
0.685800
  0
CIRCLE
  8
PIN_IN3-LAYER6
 10
11.000000
 20
4.000000
 40
0.685800
  0
CIRCLE
  8
PIN_BOTTOM
 10
11.000000
 20
4.000000
 40
0.685800
  0
CIRCLE
  8
PIN_TOP
 10
9.000000
 20
4.000000
 40
0.685800
  0
CIRCLE
  8
PIN_IN1-LAYER3
 10
9.000000
 20
4.000000
 40
0.685800
  0
CIRCLE
  8
PIN_IN2-LAYER4
 10
9.000000
 20
4.000000
 40
0.685800
  0
CIRCLE
  8
PIN_IN3-LAYER6
 10
9.000000
 20
4.000000
 40
0.685800
  0
CIRCLE
  8
PIN_BOTTOM
 10
9.000000
 20
4.000000
 40
0.685800
  0
CIRCLE
  8
PIN_TOP
 10
7.000000
 20
4.000000
 40
0.685800
  0
CIRCLE
  8
PIN_IN1-LAYER3
 10
7.000000
 20
4.000000
 40
0.685800
  0
CIRCLE
  8
PIN_IN2-LAYER4
 10
7.000000
 20
4.000000
 40
0.685800
  0
CIRCLE
  8
PIN_IN3-LAYER6
 10
7.000000
 20
4.000000
 40
0.685800
  0
CIRCLE
  8
PIN_BOTTOM
 10
7.000000
 20
4.000000
 40
0.685800
  0
CIRCLE
  8
PIN_TOP
 10
5.000000
 20
4.000000
 40
0.685800
  0
CIRCLE
  8
PIN_IN1-LAYER3
 10
5.000000
 20
4.000000
 40
0.685800
  0
CIRCLE
  8
PIN_IN2-LAYER4
 10
5.000000
 20
4.000000
 40
0.685800
  0
CIRCLE
  8
PIN_IN3-LAYER6
 10
5.000000
 20
4.000000
 40
0.685800
  0
CIRCLE
  8
PIN_BOTTOM
 10
5.000000
 20
4.000000
 40
0.685800
  0
CIRCLE
  8
PIN_TOP
 10
3.000000
 20
4.000000
 40
0.685800
  0
CIRCLE
  8
PIN_IN1-LAYER3
 10
3.000000
 20
4.000000
 40
0.685800
  0
CIRCLE
  8
PIN_IN2-LAYER4
 10
3.000000
 20
4.000000
 40
0.685800
  0
CIRCLE
  8
PIN_IN3-LAYER6
 10
3.000000
 20
4.000000
 40
0.685800
  0
CIRCLE
  8
PIN_BOTTOM
 10
3.000000
 20
4.000000
 40
0.685800
  0
CIRCLE
  8
PIN_TOP
 10
11.000000
 20
2.000000
 40
0.685800
  0
CIRCLE
  8
PIN_IN1-LAYER3
 10
11.000000
 20
2.000000
 40
0.685800
  0
CIRCLE
  8
PIN_IN2-LAYER4
 10
11.000000
 20
2.000000
 40
0.685800
  0
CIRCLE
  8
PIN_IN3-LAYER6
 10
11.000000
 20
2.000000
 40
0.685800
  0
CIRCLE
  8
PIN_BOTTOM
 10
11.000000
 20
2.000000
 40
0.685800
  0
CIRCLE
  8
PIN_TOP
 10
9.000000
 20
2.000000
 40
0.685800
  0
CIRCLE
  8
PIN_IN1-LAYER3
 10
9.000000
 20
2.000000
 40
0.685800
  0
CIRCLE
  8
PIN_IN2-LAYER4
 10
9.000000
 20
2.000000
 40
0.685800
  0
CIRCLE
  8
PIN_IN3-LAYER6
 10
9.000000
 20
2.000000
 40
0.685800
  0
CIRCLE
  8
PIN_BOTTOM
 10
9.000000
 20
2.000000
 40
0.685800
  0
CIRCLE
  8
PIN_TOP
 10
7.000000
 20
2.000000
 40
0.685800
  0
CIRCLE
  8
PIN_IN1-LAYER3
 10
7.000000
 20
2.000000
 40
0.685800
  0
CIRCLE
  8
PIN_IN2-LAYER4
 10
7.000000
 20
2.000000
 40
0.685800
  0
CIRCLE
  8
PIN_IN3-LAYER6
 10
7.000000
 20
2.000000
 40
0.685800
  0
CIRCLE
  8
PIN_BOTTOM
 10
7.000000
 20
2.000000
 40
0.685800
  0
CIRCLE
  8
PIN_TOP
 10
5.000000
 20
2.000000
 40
0.685800
  0
CIRCLE
  8
PIN_IN1-LAYER3
 10
5.000000
 20
2.000000
 40
0.685800
  0
CIRCLE
  8
PIN_IN2-LAYER4
 10
5.000000
 20
2.000000
 40
0.685800
  0
CIRCLE
  8
PIN_IN3-LAYER6
 10
5.000000
 20
2.000000
 40
0.685800
  0
CIRCLE
  8
PIN_BOTTOM
 10
5.000000
 20
2.000000
 40
0.685800
  0
CIRCLE
  8
PIN_TOP
 10
3.000000
 20
2.000000
 40
0.685800
  0
CIRCLE
  8
PIN_IN1-LAYER3
 10
3.000000
 20
2.000000
 40
0.685800
  0
CIRCLE
  8
PIN_IN2-LAYER4
 10
3.000000
 20
2.000000
 40
0.685800
  0
CIRCLE
  8
PIN_IN3-LAYER6
 10
3.000000
 20
2.000000
 40
0.685800
  0
CIRCLE
  8
PIN_BOTTOM
 10
3.000000
 20
2.000000
 40
0.685800
  0
POLYLINE
  8
PG_SILKSCREEN_TOP
 66
1
 70
0
 40
0.000000
 41
0.000000
 39
0.000000
  0
VERTEX
  8
PG_SILKSCREEN_TOP
 10
71.999900
 20
0.460000
 40
0.203200
 41
0.203200
 42
0.000000
  0
VERTEX
  8
PG_SILKSCREEN_TOP
 10
1.700000
 20
0.460000
 40
0.203200
 41
0.203200
 42
0.000000
  0
VERTEX
  8
PG_SILKSCREEN_TOP
 10
1.700000
 20
5.540000
 40
0.203200
 41
0.203200
 42
0.000000
  0
VERTEX
  8
PG_SILKSCREEN_TOP
 10
71.999900
 20
5.540000
 40
0.203200
 41
0.203200
 42
0.000000
  0
SEQEND
  0
POLYLINE
  8
PG_SILKSCREEN_TOP
 66
1
 70
0
 40
0.000000
 41
0.000000
 39
0.000000
  0
VERTEX
  8
PG_SILKSCREEN_TOP
 10
71.999900
 20
0.460000
 40
0.203200
 41
0.203200
 42
0.000000
  0
VERTEX
  8
PG_SILKSCREEN_TOP
 10
72.299800
 20
0.460000
 40
0.203200
 41
0.203200
 42
0.000000
  0
VERTEX
  8
PG_SILKSCREEN_TOP
 10
72.299800
 20
5.540000
 40
0.203200
 41
0.203200
 42
0.000000
  0
VERTEX
  8
PG_SILKSCREEN_TOP
 10
71.999900
 20
5.540000
 40
0.203200
 41
0.203200
 42
0.000000
  0
SEQEND
  0
POLYLINE
  8
PG_SILKSCREEN_TOP
 66
1
 70
0
 40
0.000000
 41
0.000000
 39
0.000000
  0
VERTEX
  8
PG_SILKSCREEN_TOP
 10
35.999900
 20
3.000000
 40
0.150100
 41
0.150100
 42
0.000000
  0
VERTEX
  8
PG_SILKSCREEN_TOP
 10
36.999900
 20
3.000000
 40
0.150100
 41
0.150100
 42
0.000000
  0
VERTEX
  8
PG_SILKSCREEN_TOP
 10
36.999900
 20
2.000000
 40
0.150100
 41
0.150100
 42
0.000000
  0
SEQEND
  0
POLYLINE
  8
PG_SILKSCREEN_TOP
 66
1
 70
0
 40
0.000000
 41
0.000000
 39
0.000000
  0
VERTEX
  8
PG_SILKSCREEN_TOP
 10
37.999900
 20
3.000000
 40
0.150100
 41
0.150100
 42
0.000000
  0
VERTEX
  8
PG_SILKSCREEN_TOP
 10
36.999900
 20
3.000000
 40
0.150100
 41
0.150100
 42
0.000000
  0
VERTEX
  8
PG_SILKSCREEN_TOP
 10
36.999900
 20
4.000000
 40
0.150100
 41
0.150100
 42
0.000000
  0
SEQEND
  0
POLYLINE
  8
PG_SILKSCREEN_TOP
 66
1
 70
1
 40
0.000000
 41
0.000000
 39
0.000000
  0
VERTEX
  8
PG_SILKSCREEN_TOP
 10
70.999900
 20
5.778000
 40
0.000000
 41
0.000000
 42
0.000000
  0
VERTEX
  8
PG_SILKSCREEN_TOP
 10
72.015900
 20
6.794000
 40
0.000000
 41
0.000000
 42
0.000000
  0
VERTEX
  8
PG_SILKSCREEN_TOP
 10
69.983900
 20
6.794000
 40
0.000000
 41
0.000000
 42
0.000000
  0
SEQEND
  0
TEXT
  8
RD_SILKSCREEN_TOP
 10
72.669400
 20
3.471400
 11
0.000000
 21
0.000000
 40
0.635000
 41
0.880000
 50
0.000000
  7
STANDARD
 71
0
 72
0
  1
P2
 73
0
  0
TEXT
  8
PG_SILKSCREEN_TOP
 10
2.201333
 20
5.757400
 11
2.413000
 21
5.757400
 40
0.635000
 41
0.880000
 50
0.000000
  7
STANDARD
 71
0
 72
1
  1
69
 73
0
  0
CIRCLE
  8
PIN_TOP
 10
21.240000
 20
45.109900
 40
0.200000
  0
CIRCLE
  8
PIN_TOP
 10
21.240000
 20
44.310000
 40
0.200000
  0
CIRCLE
  8
PIN_TOP
 10
21.240000
 20
43.509900
 40
0.200000
  0
CIRCLE
  8
PIN_TOP
 10
21.240000
 20
40.310100
 40
0.200000
  0
CIRCLE
  8
PIN_TOP
 10
21.240000
 20
39.510000
 40
0.200000
  0
CIRCLE
  8
PIN_TOP
 10
21.240000
 20
38.710100
 40
0.200000
  0
CIRCLE
  8
PIN_TOP
 10
20.439900
 20
45.109900
 40
0.200000
  0
CIRCLE
  8
PIN_TOP
 10
20.439900
 20
44.310000
 40
0.200000
  0
CIRCLE
  8
PIN_TOP
 10
20.439900
 20
43.509900
 40
0.200000
  0
CIRCLE
  8
PIN_TOP
 10
20.439900
 20
40.310100
 40
0.200000
  0
CIRCLE
  8
PIN_TOP
 10
20.439900
 20
39.510000
 40
0.200000
  0
CIRCLE
  8
PIN_TOP
 10
20.439900
 20
38.710100
 40
0.200000
  0
CIRCLE
  8
PIN_TOP
 10
19.640000
 20
45.109900
 40
0.200000
  0
CIRCLE
  8
PIN_TOP
 10
19.640000
 20
44.310000
 40
0.200000
  0
CIRCLE
  8
PIN_TOP
 10
19.640000
 20
43.509900
 40
0.200000
  0
CIRCLE
  8
PIN_TOP
 10
19.640000
 20
40.310100
 40
0.200000
  0
CIRCLE
  8
PIN_TOP
 10
19.640000
 20
39.510000
 40
0.200000
  0
CIRCLE
  8
PIN_TOP
 10
19.640000
 20
38.710100
 40
0.200000
  0
CIRCLE
  8
PIN_TOP
 10
18.839900
 20
45.109900
 40
0.200000
  0
CIRCLE
  8
PIN_TOP
 10
18.839900
 20
44.310000
 40
0.200000
  0
CIRCLE
  8
PIN_TOP
 10
18.839900
 20
43.509900
 40
0.200000
  0
CIRCLE
  8
PIN_TOP
 10
18.839900
 20
40.310100
 40
0.200000
  0
CIRCLE
  8
PIN_TOP
 10
18.839900
 20
39.510000
 40
0.200000
  0
CIRCLE
  8
PIN_TOP
 10
18.839900
 20
38.710100
 40
0.200000
  0
CIRCLE
  8
PIN_TOP
 10
18.040100
 20
45.109900
 40
0.200000
  0
CIRCLE
  8
PIN_TOP
 10
18.040100
 20
44.310000
 40
0.200000
  0
CIRCLE
  8
PIN_TOP
 10
18.040100
 20
43.509900
 40
0.200000
  0
CIRCLE
  8
PIN_TOP
 10
18.040100
 20
40.310100
 40
0.200000
  0
CIRCLE
  8
PIN_TOP
 10
18.040100
 20
39.510000
 40
0.200000
  0
CIRCLE
  8
PIN_TOP
 10
18.040100
 20
38.710100
 40
0.200000
  0
CIRCLE
  8
PIN_TOP
 10
17.240000
 20
45.109900
 40
0.200000
  0
CIRCLE
  8
PIN_TOP
 10
17.240000
 20
44.310000
 40
0.200000
  0
CIRCLE
  8
PIN_TOP
 10
17.240000
 20
43.509900
 40
0.200000
  0
CIRCLE
  8
PIN_TOP
 10
17.240000
 20
40.310100
 40
0.200000
  0
CIRCLE
  8
PIN_TOP
 10
17.240000
 20
39.510000
 40
0.200000
  0
CIRCLE
  8
PIN_TOP
 10
17.240000
 20
38.710100
 40
0.200000
  0
CIRCLE
  8
PIN_TOP
 10
16.439900
 20
45.109900
 40
0.200000
  0
CIRCLE
  8
PIN_TOP
 10
16.439900
 20
44.310000
 40
0.200000
  0
CIRCLE
  8
PIN_TOP
 10
16.439900
 20
43.509900
 40
0.200000
  0
CIRCLE
  8
PIN_TOP
 10
16.439900
 20
40.310100
 40
0.200000
  0
CIRCLE
  8
PIN_TOP
 10
16.439900
 20
39.510000
 40
0.200000
  0
CIRCLE
  8
PIN_TOP
 10
16.439900
 20
38.710100
 40
0.200000
  0
CIRCLE
  8
PIN_TOP
 10
15.640000
 20
45.109900
 40
0.200000
  0
CIRCLE
  8
PIN_TOP
 10
15.640000
 20
44.310000
 40
0.200000
  0
CIRCLE
  8
PIN_TOP
 10
15.640000
 20
43.509900
 40
0.200000
  0
CIRCLE
  8
PIN_TOP
 10
15.640000
 20
40.310100
 40
0.200000
  0
CIRCLE
  8
PIN_TOP
 10
15.640000
 20
39.510000
 40
0.200000
  0
CIRCLE
  8
PIN_TOP
 10
15.640000
 20
38.710100
 40
0.200000
  0
CIRCLE
  8
PIN_TOP
 10
14.840000
 20
45.109900
 40
0.200000
  0
CIRCLE
  8
PIN_TOP
 10
14.840000
 20
44.310000
 40
0.200000
  0
CIRCLE
  8
PIN_TOP
 10
14.840000
 20
43.509900
 40
0.200000
  0
CIRCLE
  8
PIN_TOP
 10
14.840000
 20
40.310100
 40
0.200000
  0
CIRCLE
  8
PIN_TOP
 10
14.840000
 20
39.510000
 40
0.200000
  0
CIRCLE
  8
PIN_TOP
 10
14.840000
 20
38.710100
 40
0.200000
  0
CIRCLE
  8
PIN_TOP
 10
14.040100
 20
45.109900
 40
0.200000
  0
CIRCLE
  8
PIN_TOP
 10
14.040100
 20
44.310000
 40
0.200000
  0
CIRCLE
  8
PIN_TOP
 10
14.040100
 20
43.509900
 40
0.200000
  0
CIRCLE
  8
PIN_TOP
 10
14.040100
 20
40.310100
 40
0.200000
  0
CIRCLE
  8
PIN_TOP
 10
14.040100
 20
39.510000
 40
0.200000
  0
CIRCLE
  8
PIN_TOP
 10
14.040100
 20
38.710100
 40
0.200000
  0
CIRCLE
  8
PIN_TOP
 10
13.240000
 20
45.109900
 40
0.200000
  0
CIRCLE
  8
PIN_TOP
 10
13.240000
 20
44.310000
 40
0.200000
  0
CIRCLE
  8
PIN_TOP
 10
13.240000
 20
43.509900
 40
0.200000
  0
CIRCLE
  8
PIN_TOP
 10
13.240000
 20
40.310100
 40
0.200000
  0
CIRCLE
  8
PIN_TOP
 10
13.240000
 20
39.510000
 40
0.200000
  0
CIRCLE
  8
PIN_TOP
 10
13.240000
 20
38.710100
 40
0.200000
  0
CIRCLE
  8
PIN_TOP
 10
12.439900
 20
45.109900
 40
0.200000
  0
CIRCLE
  8
PIN_TOP
 10
12.439900
 20
44.310000
 40
0.200000
  0
CIRCLE
  8
PIN_TOP
 10
12.439900
 20
43.509900
 40
0.200000
  0
CIRCLE
  8
PIN_TOP
 10
12.439900
 20
40.310100
 40
0.200000
  0
CIRCLE
  8
PIN_TOP
 10
12.439900
 20
39.510000
 40
0.200000
  0
CIRCLE
  8
PIN_TOP
 10
12.439900
 20
38.710100
 40
0.200000
  0
CIRCLE
  8
PIN_TOP
 10
11.640100
 20
45.109900
 40
0.200000
  0
CIRCLE
  8
PIN_TOP
 10
11.640100
 20
44.310000
 40
0.200000
  0
CIRCLE
  8
PIN_TOP
 10
11.640100
 20
43.509900
 40
0.200000
  0
CIRCLE
  8
PIN_TOP
 10
11.640100
 20
40.310100
 40
0.200000
  0
CIRCLE
  8
PIN_TOP
 10
11.640100
 20
39.510000
 40
0.200000
  0
CIRCLE
  8
PIN_TOP
 10
11.640100
 20
38.710100
 40
0.200000
  0
CIRCLE
  8
PIN_TOP
 10
10.840000
 20
45.109900
 40
0.200000
  0
CIRCLE
  8
PIN_TOP
 10
10.840000
 20
44.310000
 40
0.200000
  0
CIRCLE
  8
PIN_TOP
 10
10.840000
 20
43.509900
 40
0.200000
  0
CIRCLE
  8
PIN_TOP
 10
10.840000
 20
40.310100
 40
0.200000
  0
CIRCLE
  8
PIN_TOP
 10
10.840000
 20
39.510000
 40
0.200000
  0
CIRCLE
  8
PIN_TOP
 10
10.840000
 20
38.710100
 40
0.200000
  0
CIRCLE
  8
PIN_TOP
 10
10.040100
 20
45.109900
 40
0.200000
  0
CIRCLE
  8
PIN_TOP
 10
10.040100
 20
44.310000
 40
0.200000
  0
CIRCLE
  8
PIN_TOP
 10
10.040100
 20
43.509900
 40
0.200000
  0
CIRCLE
  8
PIN_TOP
 10
10.040100
 20
40.310100
 40
0.200000
  0
CIRCLE
  8
PIN_TOP
 10
10.040100
 20
39.510000
 40
0.200000
  0
CIRCLE
  8
PIN_TOP
 10
10.040100
 20
38.710100
 40
0.200000
  0
CIRCLE
  8
PIN_TOP
 10
9.240000
 20
45.109900
 40
0.200000
  0
CIRCLE
  8
PIN_TOP
 10
9.240000
 20
44.310000
 40
0.200000
  0
CIRCLE
  8
PIN_TOP
 10
9.240000
 20
43.509900
 40
0.200000
  0
CIRCLE
  8
PIN_TOP
 10
9.240000
 20
40.310100
 40
0.200000
  0
CIRCLE
  8
PIN_TOP
 10
9.240000
 20
39.510000
 40
0.200000
  0
CIRCLE
  8
PIN_TOP
 10
9.240000
 20
38.710100
 40
0.200000
  0
POLYLINE
  8
PG_SILKSCREEN_TOP
 66
1
 70
1
 40
0.000000
 41
0.000000
 39
0.000000
  0
VERTEX
  8
PG_SILKSCREEN_TOP
 10
8.590000
 20
45.660100
 40
0.199900
 41
0.199900
 42
0.000000
  0
VERTEX
  8
PG_SILKSCREEN_TOP
 10
8.590000
 20
38.159900
 40
0.199900
 41
0.199900
 42
0.000000
  0
VERTEX
  8
PG_SILKSCREEN_TOP
 10
21.890000
 20
38.159900
 40
0.199900
 41
0.199900
 42
0.000000
  0
VERTEX
  8
PG_SILKSCREEN_TOP
 10
21.890000
 20
45.660100
 40
0.199900
 41
0.199900
 42
0.000000
  0
SEQEND
  0
POLYLINE
  8
PG_SILKSCREEN_TOP
 66
1
 70
1
 40
0.000000
 41
0.000000
 39
0.000000
  0
VERTEX
  8
PG_SILKSCREEN_TOP
 10
21.890000
 20
46.410100
 40
0.199900
 41
0.199900
 42
0.000000
  0
VERTEX
  8
PG_SILKSCREEN_TOP
 10
21.890000
 20
37.409900
 40
0.199900
 41
0.199900
 42
0.000000
  0
VERTEX
  8
PG_SILKSCREEN_TOP
 10
8.590000
 20
37.409900
 40
0.199900
 41
0.199900
 42
0.000000
  0
VERTEX
  8
PG_SILKSCREEN_TOP
 10
8.590000
 20
46.410100
 40
0.199900
 41
0.199900
 42
0.000000
  0
SEQEND
  0
POLYLINE
  8
PG_SILKSCREEN_TOP
 66
1
 70
1
 40
0.000000
 41
0.000000
 39
0.000000
  0
VERTEX
  8
PG_SILKSCREEN_TOP
 10
21.340100
 20
45.410100
 40
0.000000
 41
0.000000
 42
0.000000
  0
VERTEX
  8
PG_SILKSCREEN_TOP
 10
22.340100
 20
45.410100
 40
0.000000
 41
0.000000
 42
0.000000
  0
VERTEX
  8
PG_SILKSCREEN_TOP
 10
22.340100
 20
46.910000
 40
0.000000
 41
0.000000
 42
0.000000
  0
VERTEX
  8
PG_SILKSCREEN_TOP
 10
21.340100
 20
46.910000
 40
0.000000
 41
0.000000
 42
0.000000
  0
SEQEND
  0
TEXT
  8
RD_SILKSCREEN_TOP
 10
8.339800
 20
39.522400
 11
0.000000
 21
0.000000
 40
0.635000
 41
0.880000
 50
90.000000
  7
STANDARD
 71
0
 72
0
  1
U6
 73
0
  0
CIRCLE
  8
PIN_TOP
 10
21.240000
 20
32.917900
 40
0.200000
  0
CIRCLE
  8
PIN_TOP
 10
21.240000
 20
32.118000
 40
0.200000
  0
CIRCLE
  8
PIN_TOP
 10
21.240000
 20
31.317900
 40
0.200000
  0
CIRCLE
  8
PIN_TOP
 10
21.240000
 20
28.118100
 40
0.200000
  0
CIRCLE
  8
PIN_TOP
 10
21.240000
 20
27.318000
 40
0.200000
  0
CIRCLE
  8
PIN_TOP
 10
21.240000
 20
26.518100
 40
0.200000
  0
CIRCLE
  8
PIN_TOP
 10
20.439900
 20
32.917900
 40
0.200000
  0
CIRCLE
  8
PIN_TOP
 10
20.439900
 20
32.118000
 40
0.200000
  0
CIRCLE
  8
PIN_TOP
 10
20.439900
 20
31.317900
 40
0.200000
  0
CIRCLE
  8
PIN_TOP
 10
20.439900
 20
28.118100
 40
0.200000
  0
CIRCLE
  8
PIN_TOP
 10
20.439900
 20
27.318000
 40
0.200000
  0
CIRCLE
  8
PIN_TOP
 10
20.439900
 20
26.518100
 40
0.200000
  0
CIRCLE
  8
PIN_TOP
 10
19.640000
 20
32.917900
 40
0.200000
  0
CIRCLE
  8
PIN_TOP
 10
19.640000
 20
32.118000
 40
0.200000
  0
CIRCLE
  8
PIN_TOP
 10
19.640000
 20
31.317900
 40
0.200000
  0
CIRCLE
  8
PIN_TOP
 10
19.640000
 20
28.118100
 40
0.200000
  0
CIRCLE
  8
PIN_TOP
 10
19.640000
 20
27.318000
 40
0.200000
  0
CIRCLE
  8
PIN_TOP
 10
19.640000
 20
26.518100
 40
0.200000
  0
CIRCLE
  8
PIN_TOP
 10
18.839900
 20
32.917900
 40
0.200000
  0
CIRCLE
  8
PIN_TOP
 10
18.839900
 20
32.118000
 40
0.200000
  0
CIRCLE
  8
PIN_TOP
 10
18.839900
 20
31.317900
 40
0.200000
  0
CIRCLE
  8
PIN_TOP
 10
18.839900
 20
28.118100
 40
0.200000
  0
CIRCLE
  8
PIN_TOP
 10
18.839900
 20
27.318000
 40
0.200000
  0
CIRCLE
  8
PIN_TOP
 10
18.839900
 20
26.518100
 40
0.200000
  0
CIRCLE
  8
PIN_TOP
 10
18.040100
 20
32.917900
 40
0.200000
  0
CIRCLE
  8
PIN_TOP
 10
18.040100
 20
32.118000
 40
0.200000
  0
CIRCLE
  8
PIN_TOP
 10
18.040100
 20
31.317900
 40
0.200000
  0
CIRCLE
  8
PIN_TOP
 10
18.040100
 20
28.118100
 40
0.200000
  0
CIRCLE
  8
PIN_TOP
 10
18.040100
 20
27.318000
 40
0.200000
  0
CIRCLE
  8
PIN_TOP
 10
18.040100
 20
26.518100
 40
0.200000
  0
CIRCLE
  8
PIN_TOP
 10
17.240000
 20
32.917900
 40
0.200000
  0
CIRCLE
  8
PIN_TOP
 10
17.240000
 20
32.118000
 40
0.200000
  0
CIRCLE
  8
PIN_TOP
 10
17.240000
 20
31.317900
 40
0.200000
  0
CIRCLE
  8
PIN_TOP
 10
17.240000
 20
28.118100
 40
0.200000
  0
CIRCLE
  8
PIN_TOP
 10
17.240000
 20
27.318000
 40
0.200000
  0
CIRCLE
  8
PIN_TOP
 10
17.240000
 20
26.518100
 40
0.200000
  0
CIRCLE
  8
PIN_TOP
 10
16.439900
 20
32.917900
 40
0.200000
  0
CIRCLE
  8
PIN_TOP
 10
16.439900
 20
32.118000
 40
0.200000
  0
CIRCLE
  8
PIN_TOP
 10
16.439900
 20
31.317900
 40
0.200000
  0
CIRCLE
  8
PIN_TOP
 10
16.439900
 20
28.118100
 40
0.200000
  0
CIRCLE
  8
PIN_TOP
 10
16.439900
 20
27.318000
 40
0.200000
  0
CIRCLE
  8
PIN_TOP
 10
16.439900
 20
26.518100
 40
0.200000
  0
CIRCLE
  8
PIN_TOP
 10
15.640000
 20
32.917900
 40
0.200000
  0
CIRCLE
  8
PIN_TOP
 10
15.640000
 20
32.118000
 40
0.200000
  0
CIRCLE
  8
PIN_TOP
 10
15.640000
 20
31.317900
 40
0.200000
  0
CIRCLE
  8
PIN_TOP
 10
15.640000
 20
28.118100
 40
0.200000
  0
CIRCLE
  8
PIN_TOP
 10
15.640000
 20
27.318000
 40
0.200000
  0
CIRCLE
  8
PIN_TOP
 10
15.640000
 20
26.518100
 40
0.200000
  0
CIRCLE
  8
PIN_TOP
 10
14.840000
 20
32.917900
 40
0.200000
  0
CIRCLE
  8
PIN_TOP
 10
14.840000
 20
32.118000
 40
0.200000
  0
CIRCLE
  8
PIN_TOP
 10
14.840000
 20
31.317900
 40
0.200000
  0
CIRCLE
  8
PIN_TOP
 10
14.840000
 20
28.118100
 40
0.200000
  0
CIRCLE
  8
PIN_TOP
 10
14.840000
 20
27.318000
 40
0.200000
  0
CIRCLE
  8
PIN_TOP
 10
14.840000
 20
26.518100
 40
0.200000
  0
CIRCLE
  8
PIN_TOP
 10
14.040100
 20
32.917900
 40
0.200000
  0
CIRCLE
  8
PIN_TOP
 10
14.040100
 20
32.118000
 40
0.200000
  0
CIRCLE
  8
PIN_TOP
 10
14.040100
 20
31.317900
 40
0.200000
  0
CIRCLE
  8
PIN_TOP
 10
14.040100
 20
28.118100
 40
0.200000
  0
CIRCLE
  8
PIN_TOP
 10
14.040100
 20
27.318000
 40
0.200000
  0
CIRCLE
  8
PIN_TOP
 10
14.040100
 20
26.518100
 40
0.200000
  0
CIRCLE
  8
PIN_TOP
 10
13.240000
 20
32.917900
 40
0.200000
  0
CIRCLE
  8
PIN_TOP
 10
13.240000
 20
32.118000
 40
0.200000
  0
CIRCLE
  8
PIN_TOP
 10
13.240000
 20
31.317900
 40
0.200000
  0
CIRCLE
  8
PIN_TOP
 10
13.240000
 20
28.118100
 40
0.200000
  0
CIRCLE
  8
PIN_TOP
 10
13.240000
 20
27.318000
 40
0.200000
  0
CIRCLE
  8
PIN_TOP
 10
13.240000
 20
26.518100
 40
0.200000
  0
CIRCLE
  8
PIN_TOP
 10
12.439900
 20
32.917900
 40
0.200000
  0
CIRCLE
  8
PIN_TOP
 10
12.439900
 20
32.118000
 40
0.200000
  0
CIRCLE
  8
PIN_TOP
 10
12.439900
 20
31.317900
 40
0.200000
  0
CIRCLE
  8
PIN_TOP
 10
12.439900
 20
28.118100
 40
0.200000
  0
CIRCLE
  8
PIN_TOP
 10
12.439900
 20
27.318000
 40
0.200000
  0
CIRCLE
  8
PIN_TOP
 10
12.439900
 20
26.518100
 40
0.200000
  0
CIRCLE
  8
PIN_TOP
 10
11.640100
 20
32.917900
 40
0.200000
  0
CIRCLE
  8
PIN_TOP
 10
11.640100
 20
32.118000
 40
0.200000
  0
CIRCLE
  8
PIN_TOP
 10
11.640100
 20
31.317900
 40
0.200000
  0
CIRCLE
  8
PIN_TOP
 10
11.640100
 20
28.118100
 40
0.200000
  0
CIRCLE
  8
PIN_TOP
 10
11.640100
 20
27.318000
 40
0.200000
  0
CIRCLE
  8
PIN_TOP
 10
11.640100
 20
26.518100
 40
0.200000
  0
CIRCLE
  8
PIN_TOP
 10
10.840000
 20
32.917900
 40
0.200000
  0
CIRCLE
  8
PIN_TOP
 10
10.840000
 20
32.118000
 40
0.200000
  0
CIRCLE
  8
PIN_TOP
 10
10.840000
 20
31.317900
 40
0.200000
  0
CIRCLE
  8
PIN_TOP
 10
10.840000
 20
28.118100
 40
0.200000
  0
CIRCLE
  8
PIN_TOP
 10
10.840000
 20
27.318000
 40
0.200000
  0
CIRCLE
  8
PIN_TOP
 10
10.840000
 20
26.518100
 40
0.200000
  0
CIRCLE
  8
PIN_TOP
 10
10.040100
 20
32.917900
 40
0.200000
  0
CIRCLE
  8
PIN_TOP
 10
10.040100
 20
32.118000
 40
0.200000
  0
CIRCLE
  8
PIN_TOP
 10
10.040100
 20
31.317900
 40
0.200000
  0
CIRCLE
  8
PIN_TOP
 10
10.040100
 20
28.118100
 40
0.200000
  0
CIRCLE
  8
PIN_TOP
 10
10.040100
 20
27.318000
 40
0.200000
  0
CIRCLE
  8
PIN_TOP
 10
10.040100
 20
26.518100
 40
0.200000
  0
CIRCLE
  8
PIN_TOP
 10
9.240000
 20
32.917900
 40
0.200000
  0
CIRCLE
  8
PIN_TOP
 10
9.240000
 20
32.118000
 40
0.200000
  0
CIRCLE
  8
PIN_TOP
 10
9.240000
 20
31.317900
 40
0.200000
  0
CIRCLE
  8
PIN_TOP
 10
9.240000
 20
28.118100
 40
0.200000
  0
CIRCLE
  8
PIN_TOP
 10
9.240000
 20
27.318000
 40
0.200000
  0
CIRCLE
  8
PIN_TOP
 10
9.240000
 20
26.518100
 40
0.200000
  0
POLYLINE
  8
PG_SILKSCREEN_TOP
 66
1
 70
1
 40
0.000000
 41
0.000000
 39
0.000000
  0
VERTEX
  8
PG_SILKSCREEN_TOP
 10
8.590000
 20
33.468100
 40
0.199900
 41
0.199900
 42
0.000000
  0
VERTEX
  8
PG_SILKSCREEN_TOP
 10
8.590000
 20
25.967900
 40
0.199900
 41
0.199900
 42
0.000000
  0
VERTEX
  8
PG_SILKSCREEN_TOP
 10
21.890000
 20
25.967900
 40
0.199900
 41
0.199900
 42
0.000000
  0
VERTEX
  8
PG_SILKSCREEN_TOP
 10
21.890000
 20
33.468100
 40
0.199900
 41
0.199900
 42
0.000000
  0
SEQEND
  0
POLYLINE
  8
PG_SILKSCREEN_TOP
 66
1
 70
1
 40
0.000000
 41
0.000000
 39
0.000000
  0
VERTEX
  8
PG_SILKSCREEN_TOP
 10
21.340100
 20
33.218100
 40
0.000000
 41
0.000000
 42
0.000000
  0
VERTEX
  8
PG_SILKSCREEN_TOP
 10
22.340100
 20
33.218100
 40
0.000000
 41
0.000000
 42
0.000000
  0
VERTEX
  8
PG_SILKSCREEN_TOP
 10
22.340100
 20
34.718000
 40
0.000000
 41
0.000000
 42
0.000000
  0
VERTEX
  8
PG_SILKSCREEN_TOP
 10
21.340100
 20
34.718000
 40
0.000000
 41
0.000000
 42
0.000000
  0
SEQEND
  0
TEXT
  8
RD_SILKSCREEN_TOP
 10
8.339800
 20
27.838400
 11
0.000000
 21
0.000000
 40
0.635000
 41
0.880000
 50
90.000000
  7
STANDARD
 71
0
 72
0
  1
U7
 73
0
  0
CIRCLE
  8
PIN_TOP
 10
30.399300
 20
26.421100
 40
0.139700
  0
CIRCLE
  8
PIN_TOP
 10
30.399300
 20
27.071100
 40
0.139700
  0
CIRCLE
  8
PIN_TOP
 10
30.399300
 20
27.721100
 40
0.139700
  0
CIRCLE
  8
PIN_TOP
 10
30.399300
 20
28.371100
 40
0.139700
  0
CIRCLE
  8
PIN_TOP
 10
30.399300
 20
29.021300
 40
0.139700
  0
CIRCLE
  8
PIN_TOP
 10
30.399300
 20
29.671300
 40
0.139700
  0
CIRCLE
  8
PIN_TOP
 10
30.399300
 20
30.321300
 40
0.139700
  0
CIRCLE
  8
PIN_TOP
 10
30.399300
 20
30.971300
 40
0.139700
  0
CIRCLE
  8
PIN_TOP
 10
30.399300
 20
31.621300
 40
0.139700
  0
CIRCLE
  8
PIN_TOP
 10
30.399300
 20
32.271300
 40
0.139700
  0
CIRCLE
  8
PIN_TOP
 10
30.399300
 20
32.921200
 40
0.139700
  0
CIRCLE
  8
PIN_TOP
 10
30.399300
 20
33.571200
 40
0.139700
  0
CIRCLE
  8
PIN_TOP
 10
30.399300
 20
34.221200
 40
0.139700
  0
CIRCLE
  8
PIN_TOP
 10
30.399300
 20
34.871200
 40
0.139700
  0
CIRCLE
  8
PIN_TOP
 10
30.399300
 20
35.521200
 40
0.139700
  0
CIRCLE
  8
PIN_TOP
 10
30.399300
 20
36.171200
 40
0.139700
  0
CIRCLE
  8
PIN_TOP
 10
30.399300
 20
36.821200
 40
0.139700
  0
CIRCLE
  8
PIN_TOP
 10
30.399300
 20
37.471100
 40
0.139700
  0
CIRCLE
  8
PIN_TOP
 10
30.399300
 20
38.121100
 40
0.139700
  0
CIRCLE
  8
PIN_TOP
 10
30.399300
 20
38.771100
 40
0.139700
  0
CIRCLE
  8
PIN_TOP
 10
30.399300
 20
39.421100
 40
0.139700
  0
CIRCLE
  8
PIN_TOP
 10
30.399300
 20
40.071100
 40
0.139700
  0
CIRCLE
  8
PIN_TOP
 10
30.399300
 20
40.721100
 40
0.139700
  0
CIRCLE
  8
PIN_TOP
 10
30.399300
 20
41.371300
 40
0.139700
  0
CIRCLE
  8
PIN_TOP
 10
30.399300
 20
42.021300
 40
0.139700
  0
CIRCLE
  8
PIN_TOP
 10
30.399300
 20
42.671300
 40
0.139700
  0
CIRCLE
  8
PIN_TOP
 10
30.399300
 20
43.321300
 40
0.139700
  0
CIRCLE
  8
PIN_TOP
 10
31.049300
 20
26.421100
 40
0.139700
  0
CIRCLE
  8
PIN_TOP
 10
31.049300
 20
27.071100
 40
0.139700
  0
CIRCLE
  8
PIN_TOP
 10
31.049300
 20
27.721100
 40
0.139700
  0
CIRCLE
  8
PIN_TOP
 10
31.049300
 20
28.371100
 40
0.139700
  0
CIRCLE
  8
PIN_TOP
 10
31.049300
 20
29.021300
 40
0.139700
  0
CIRCLE
  8
PIN_TOP
 10
31.049300
 20
29.671300
 40
0.139700
  0
CIRCLE
  8
PIN_TOP
 10
31.049300
 20
30.321300
 40
0.139700
  0
CIRCLE
  8
PIN_TOP
 10
31.049300
 20
30.971300
 40
0.139700
  0
CIRCLE
  8
PIN_TOP
 10
31.049300
 20
31.621300
 40
0.139700
  0
CIRCLE
  8
PIN_TOP
 10
31.049300
 20
32.271300
 40
0.139700
  0
CIRCLE
  8
PIN_TOP
 10
31.049300
 20
32.921200
 40
0.139700
  0
CIRCLE
  8
PIN_TOP
 10
31.049300
 20
33.571200
 40
0.139700
  0
CIRCLE
  8
PIN_TOP
 10
31.049300
 20
34.221200
 40
0.139700
  0
CIRCLE
  8
PIN_TOP
 10
31.049300
 20
34.871200
 40
0.139700
  0
CIRCLE
  8
PIN_TOP
 10
31.049300
 20
35.521200
 40
0.139700
  0
CIRCLE
  8
PIN_TOP
 10
31.049300
 20
36.171200
 40
0.139700
  0
CIRCLE
  8
PIN_TOP
 10
31.049300
 20
36.821200
 40
0.139700
  0
CIRCLE
  8
PIN_TOP
 10
31.049300
 20
37.471100
 40
0.139700
  0
CIRCLE
  8
PIN_TOP
 10
31.049300
 20
38.121100
 40
0.139700
  0
CIRCLE
  8
PIN_TOP
 10
31.049300
 20
38.771100
 40
0.139700
  0
CIRCLE
  8
PIN_TOP
 10
31.049300
 20
39.421100
 40
0.139700
  0
CIRCLE
  8
PIN_TOP
 10
31.049300
 20
40.071100
 40
0.139700
  0
CIRCLE
  8
PIN_TOP
 10
31.049300
 20
40.721100
 40
0.139700
  0
CIRCLE
  8
PIN_TOP
 10
31.049300
 20
41.371300
 40
0.139700
  0
CIRCLE
  8
PIN_TOP
 10
31.049300
 20
42.021300
 40
0.139700
  0
CIRCLE
  8
PIN_TOP
 10
31.049300
 20
42.671300
 40
0.139700
  0
CIRCLE
  8
PIN_TOP
 10
31.049300
 20
43.321300
 40
0.139700
  0
CIRCLE
  8
PIN_TOP
 10
31.699200
 20
26.421100
 40
0.139700
  0
CIRCLE
  8
PIN_TOP
 10
31.699200
 20
27.071100
 40
0.139700
  0
CIRCLE
  8
PIN_TOP
 10
31.699200
 20
27.721100
 40
0.139700
  0
CIRCLE
  8
PIN_TOP
 10
31.699200
 20
28.371100
 40
0.139700
  0
CIRCLE
  8
PIN_TOP
 10
31.699200
 20
29.021300
 40
0.139700
  0
CIRCLE
  8
PIN_TOP
 10
31.699200
 20
29.671300
 40
0.139700
  0
CIRCLE
  8
PIN_TOP
 10
31.699200
 20
30.321300
 40
0.139700
  0
CIRCLE
  8
PIN_TOP
 10
31.699200
 20
30.971300
 40
0.139700
  0
CIRCLE
  8
PIN_TOP
 10
31.699200
 20
31.621300
 40
0.139700
  0
CIRCLE
  8
PIN_TOP
 10
31.699200
 20
32.271300
 40
0.139700
  0
CIRCLE
  8
PIN_TOP
 10
31.699200
 20
32.921200
 40
0.139700
  0
CIRCLE
  8
PIN_TOP
 10
31.699200
 20
33.571200
 40
0.139700
  0
CIRCLE
  8
PIN_TOP
 10
31.699200
 20
34.221200
 40
0.139700
  0
CIRCLE
  8
PIN_TOP
 10
31.699200
 20
34.871200
 40
0.139700
  0
CIRCLE
  8
PIN_TOP
 10
31.699200
 20
35.521200
 40
0.139700
  0
CIRCLE
  8
PIN_TOP
 10
31.699200
 20
36.171200
 40
0.139700
  0
CIRCLE
  8
PIN_TOP
 10
31.699200
 20
36.821200
 40
0.139700
  0
CIRCLE
  8
PIN_TOP
 10
31.699200
 20
37.471100
 40
0.139700
  0
CIRCLE
  8
PIN_TOP
 10
31.699200
 20
38.121100
 40
0.139700
  0
CIRCLE
  8
PIN_TOP
 10
31.699200
 20
38.771100
 40
0.139700
  0
CIRCLE
  8
PIN_TOP
 10
31.699200
 20
39.421100
 40
0.139700
  0
CIRCLE
  8
PIN_TOP
 10
31.699200
 20
40.071100
 40
0.139700
  0
CIRCLE
  8
PIN_TOP
 10
31.699200
 20
40.721100
 40
0.139700
  0
CIRCLE
  8
PIN_TOP
 10
31.699200
 20
41.371300
 40
0.139700
  0
CIRCLE
  8
PIN_TOP
 10
31.699200
 20
42.021300
 40
0.139700
  0
CIRCLE
  8
PIN_TOP
 10
31.699200
 20
42.671300
 40
0.139700
  0
CIRCLE
  8
PIN_TOP
 10
31.699200
 20
43.321300
 40
0.139700
  0
CIRCLE
  8
PIN_TOP
 10
32.349200
 20
26.421100
 40
0.139700
  0
CIRCLE
  8
PIN_TOP
 10
32.349200
 20
27.071100
 40
0.139700
  0
CIRCLE
  8
PIN_TOP
 10
32.349200
 20
27.721100
 40
0.139700
  0
CIRCLE
  8
PIN_TOP
 10
32.349200
 20
28.371100
 40
0.139700
  0
CIRCLE
  8
PIN_TOP
 10
32.349200
 20
29.021300
 40
0.139700
  0
CIRCLE
  8
PIN_TOP
 10
32.349200
 20
29.671300
 40
0.139700
  0
CIRCLE
  8
PIN_TOP
 10
32.349200
 20
30.321300
 40
0.139700
  0
CIRCLE
  8
PIN_TOP
 10
32.349200
 20
30.971300
 40
0.139700
  0
CIRCLE
  8
PIN_TOP
 10
32.349200
 20
31.621300
 40
0.139700
  0
CIRCLE
  8
PIN_TOP
 10
32.349200
 20
32.271300
 40
0.139700
  0
CIRCLE
  8
PIN_TOP
 10
32.349200
 20
32.921200
 40
0.139700
  0
CIRCLE
  8
PIN_TOP
 10
32.349200
 20
33.571200
 40
0.139700
  0
CIRCLE
  8
PIN_TOP
 10
32.349200
 20
34.221200
 40
0.139700
  0
CIRCLE
  8
PIN_TOP
 10
32.349200
 20
34.871200
 40
0.139700
  0
CIRCLE
  8
PIN_TOP
 10
32.349200
 20
35.521200
 40
0.139700
  0
CIRCLE
  8
PIN_TOP
 10
32.349200
 20
36.171200
 40
0.139700
  0
CIRCLE
  8
PIN_TOP
 10
32.349200
 20
36.821200
 40
0.139700
  0
CIRCLE
  8
PIN_TOP
 10
32.349200
 20
37.471100
 40
0.139700
  0
CIRCLE
  8
PIN_TOP
 10
32.349200
 20
38.121100
 40
0.139700
  0
CIRCLE
  8
PIN_TOP
 10
32.349200
 20
38.771100
 40
0.139700
  0
CIRCLE
  8
PIN_TOP
 10
32.349200
 20
39.421100
 40
0.139700
  0
CIRCLE
  8
PIN_TOP
 10
32.349200
 20
40.071100
 40
0.139700
  0
CIRCLE
  8
PIN_TOP
 10
32.349200
 20
40.721100
 40
0.139700
  0
CIRCLE
  8
PIN_TOP
 10
32.349200
 20
41.371300
 40
0.139700
  0
CIRCLE
  8
PIN_TOP
 10
32.349200
 20
42.021300
 40
0.139700
  0
CIRCLE
  8
PIN_TOP
 10
32.349200
 20
42.671300
 40
0.139700
  0
CIRCLE
  8
PIN_TOP
 10
32.349200
 20
43.321300
 40
0.139700
  0
CIRCLE
  8
PIN_TOP
 10
32.999200
 20
26.421100
 40
0.139700
  0
CIRCLE
  8
PIN_TOP
 10
32.999200
 20
27.071100
 40
0.139700
  0
CIRCLE
  8
PIN_TOP
 10
32.999200
 20
27.721100
 40
0.139700
  0
CIRCLE
  8
PIN_TOP
 10
32.999200
 20
28.371100
 40
0.139700
  0
CIRCLE
  8
PIN_TOP
 10
32.999200
 20
29.021300
 40
0.139700
  0
CIRCLE
  8
PIN_TOP
 10
32.999200
 20
29.671300
 40
0.139700
  0
CIRCLE
  8
PIN_TOP
 10
32.999200
 20
30.321300
 40
0.139700
  0
CIRCLE
  8
PIN_TOP
 10
32.999200
 20
30.971300
 40
0.139700
  0
CIRCLE
  8
PIN_TOP
 10
32.999200
 20
31.621300
 40
0.139700
  0
CIRCLE
  8
PIN_TOP
 10
32.999200
 20
32.271300
 40
0.139700
  0
CIRCLE
  8
PIN_TOP
 10
32.999200
 20
32.921200
 40
0.139700
  0
CIRCLE
  8
PIN_TOP
 10
32.999200
 20
33.571200
 40
0.139700
  0
CIRCLE
  8
PIN_TOP
 10
32.999200
 20
34.221200
 40
0.139700
  0
CIRCLE
  8
PIN_TOP
 10
32.999200
 20
34.871200
 40
0.139700
  0
CIRCLE
  8
PIN_TOP
 10
32.999200
 20
35.521200
 40
0.139700
  0
CIRCLE
  8
PIN_TOP
 10
32.999200
 20
36.171200
 40
0.139700
  0
CIRCLE
  8
PIN_TOP
 10
32.999200
 20
36.821200
 40
0.139700
  0
CIRCLE
  8
PIN_TOP
 10
32.999200
 20
37.471100
 40
0.139700
  0
CIRCLE
  8
PIN_TOP
 10
32.999200
 20
38.121100
 40
0.139700
  0
CIRCLE
  8
PIN_TOP
 10
32.999200
 20
38.771100
 40
0.139700
  0
CIRCLE
  8
PIN_TOP
 10
32.999200
 20
39.421100
 40
0.139700
  0
CIRCLE
  8
PIN_TOP
 10
32.999200
 20
40.071100
 40
0.139700
  0
CIRCLE
  8
PIN_TOP
 10
32.999200
 20
40.721100
 40
0.139700
  0
CIRCLE
  8
PIN_TOP
 10
32.999200
 20
41.371300
 40
0.139700
  0
CIRCLE
  8
PIN_TOP
 10
32.999200
 20
42.021300
 40
0.139700
  0
CIRCLE
  8
PIN_TOP
 10
32.999200
 20
42.671300
 40
0.139700
  0
CIRCLE
  8
PIN_TOP
 10
32.999200
 20
43.321300
 40
0.139700
  0
CIRCLE
  8
PIN_TOP
 10
33.649200
 20
26.421100
 40
0.139700
  0
CIRCLE
  8
PIN_TOP
 10
33.649200
 20
27.071100
 40
0.139700
  0
CIRCLE
  8
PIN_TOP
 10
33.649200
 20
27.721100
 40
0.139700
  0
CIRCLE
  8
PIN_TOP
 10
33.649200
 20
28.371100
 40
0.139700
  0
CIRCLE
  8
PIN_TOP
 10
33.649200
 20
29.021300
 40
0.139700
  0
CIRCLE
  8
PIN_TOP
 10
33.649200
 20
29.671300
 40
0.139700
  0
CIRCLE
  8
PIN_TOP
 10
33.649200
 20
30.321300
 40
0.139700
  0
CIRCLE
  8
PIN_TOP
 10
33.649200
 20
30.971300
 40
0.139700
  0
CIRCLE
  8
PIN_TOP
 10
33.649200
 20
31.621300
 40
0.139700
  0
CIRCLE
  8
PIN_TOP
 10
33.649200
 20
32.271300
 40
0.139700
  0
CIRCLE
  8
PIN_TOP
 10
33.649200
 20
32.921200
 40
0.139700
  0
CIRCLE
  8
PIN_TOP
 10
33.649200
 20
33.571200
 40
0.139700
  0
CIRCLE
  8
PIN_TOP
 10
33.649200
 20
34.221200
 40
0.139700
  0
CIRCLE
  8
PIN_TOP
 10
33.649200
 20
34.871200
 40
0.139700
  0
CIRCLE
  8
PIN_TOP
 10
33.649200
 20
35.521200
 40
0.139700
  0
CIRCLE
  8
PIN_TOP
 10
33.649200
 20
36.171200
 40
0.139700
  0
CIRCLE
  8
PIN_TOP
 10
33.649200
 20
36.821200
 40
0.139700
  0
CIRCLE
  8
PIN_TOP
 10
33.649200
 20
37.471100
 40
0.139700
  0
CIRCLE
  8
PIN_TOP
 10
33.649200
 20
38.121100
 40
0.139700
  0
CIRCLE
  8
PIN_TOP
 10
33.649200
 20
38.771100
 40
0.139700
  0
CIRCLE
  8
PIN_TOP
 10
33.649200
 20
39.421100
 40
0.139700
  0
CIRCLE
  8
PIN_TOP
 10
33.649200
 20
40.071100
 40
0.139700
  0
CIRCLE
  8
PIN_TOP
 10
33.649200
 20
40.721100
 40
0.139700
  0
CIRCLE
  8
PIN_TOP
 10
33.649200
 20
41.371300
 40
0.139700
  0
CIRCLE
  8
PIN_TOP
 10
33.649200
 20
42.021300
 40
0.139700
  0
CIRCLE
  8
PIN_TOP
 10
33.649200
 20
42.671300
 40
0.139700
  0
CIRCLE
  8
PIN_TOP
 10
33.649200
 20
43.321300
 40
0.139700
  0
CIRCLE
  8
PIN_TOP
 10
34.299200
 20
26.421100
 40
0.139700
  0
CIRCLE
  8
PIN_TOP
 10
34.299200
 20
27.071100
 40
0.139700
  0
CIRCLE
  8
PIN_TOP
 10
34.299200
 20
27.721100
 40
0.139700
  0
CIRCLE
  8
PIN_TOP
 10
34.299200
 20
28.371100
 40
0.139700
  0
CIRCLE
  8
PIN_TOP
 10
34.299200
 20
29.021300
 40
0.139700
  0
CIRCLE
  8
PIN_TOP
 10
34.299200
 20
29.671300
 40
0.139700
  0
CIRCLE
  8
PIN_TOP
 10
34.299200
 20
30.321300
 40
0.139700
  0
CIRCLE
  8
PIN_TOP
 10
34.299200
 20
30.971300
 40
0.139700
  0
CIRCLE
  8
PIN_TOP
 10
34.299200
 20
31.621300
 40
0.139700
  0
CIRCLE
  8
PIN_TOP
 10
34.299200
 20
32.271300
 40
0.139700
  0
CIRCLE
  8
PIN_TOP
 10
34.299200
 20
32.921200
 40
0.139700
  0
CIRCLE
  8
PIN_TOP
 10
34.299200
 20
33.571200
 40
0.139700
  0
CIRCLE
  8
PIN_TOP
 10
34.299200
 20
34.221200
 40
0.139700
  0
CIRCLE
  8
PIN_TOP
 10
34.299200
 20
34.871200
 40
0.139700
  0
CIRCLE
  8
PIN_TOP
 10
34.299200
 20
35.521200
 40
0.139700
  0
CIRCLE
  8
PIN_TOP
 10
34.299200
 20
36.171200
 40
0.139700
  0
CIRCLE
  8
PIN_TOP
 10
34.299200
 20
36.821200
 40
0.139700
  0
CIRCLE
  8
PIN_TOP
 10
34.299200
 20
37.471100
 40
0.139700
  0
CIRCLE
  8
PIN_TOP
 10
34.299200
 20
38.121100
 40
0.139700
  0
CIRCLE
  8
PIN_TOP
 10
34.299200
 20
38.771100
 40
0.139700
  0
CIRCLE
  8
PIN_TOP
 10
34.299200
 20
39.421100
 40
0.139700
  0
CIRCLE
  8
PIN_TOP
 10
34.299200
 20
40.071100
 40
0.139700
  0
CIRCLE
  8
PIN_TOP
 10
34.299200
 20
40.721100
 40
0.139700
  0
CIRCLE
  8
PIN_TOP
 10
34.299200
 20
41.371300
 40
0.139700
  0
CIRCLE
  8
PIN_TOP
 10
34.299200
 20
42.021300
 40
0.139700
  0
CIRCLE
  8
PIN_TOP
 10
34.299200
 20
42.671300
 40
0.139700
  0
CIRCLE
  8
PIN_TOP
 10
34.299200
 20
43.321300
 40
0.139700
  0
CIRCLE
  8
PIN_TOP
 10
34.949200
 20
26.421100
 40
0.139700
  0
CIRCLE
  8
PIN_TOP
 10
34.949200
 20
27.071100
 40
0.139700
  0
CIRCLE
  8
PIN_TOP
 10
34.949200
 20
27.721100
 40
0.139700
  0
CIRCLE
  8
PIN_TOP
 10
34.949200
 20
28.371100
 40
0.139700
  0
CIRCLE
  8
PIN_TOP
 10
34.949200
 20
29.021300
 40
0.139700
  0
CIRCLE
  8
PIN_TOP
 10
34.949200
 20
29.671300
 40
0.139700
  0
CIRCLE
  8
PIN_TOP
 10
34.949200
 20
30.321300
 40
0.139700
  0
CIRCLE
  8
PIN_TOP
 10
34.949200
 20
30.971300
 40
0.139700
  0
CIRCLE
  8
PIN_TOP
 10
34.949200
 20
31.621300
 40
0.139700
  0
CIRCLE
  8
PIN_TOP
 10
34.949200
 20
32.271300
 40
0.139700
  0
CIRCLE
  8
PIN_TOP
 10
34.949200
 20
32.921200
 40
0.139700
  0
CIRCLE
  8
PIN_TOP
 10
34.949200
 20
33.571200
 40
0.139700
  0
CIRCLE
  8
PIN_TOP
 10
34.949200
 20
34.221200
 40
0.139700
  0
CIRCLE
  8
PIN_TOP
 10
34.949200
 20
34.871200
 40
0.139700
  0
CIRCLE
  8
PIN_TOP
 10
34.949200
 20
35.521200
 40
0.139700
  0
CIRCLE
  8
PIN_TOP
 10
34.949200
 20
36.171200
 40
0.139700
  0
CIRCLE
  8
PIN_TOP
 10
34.949200
 20
36.821200
 40
0.139700
  0
CIRCLE
  8
PIN_TOP
 10
34.949200
 20
37.471100
 40
0.139700
  0
CIRCLE
  8
PIN_TOP
 10
34.949200
 20
38.121100
 40
0.139700
  0
CIRCLE
  8
PIN_TOP
 10
34.949200
 20
38.771100
 40
0.139700
  0
CIRCLE
  8
PIN_TOP
 10
34.949200
 20
39.421100
 40
0.139700
  0
CIRCLE
  8
PIN_TOP
 10
34.949200
 20
40.071100
 40
0.139700
  0
CIRCLE
  8
PIN_TOP
 10
34.949200
 20
40.721100
 40
0.139700
  0
CIRCLE
  8
PIN_TOP
 10
34.949200
 20
41.371300
 40
0.139700
  0
CIRCLE
  8
PIN_TOP
 10
34.949200
 20
42.021300
 40
0.139700
  0
CIRCLE
  8
PIN_TOP
 10
34.949200
 20
42.671300
 40
0.139700
  0
CIRCLE
  8
PIN_TOP
 10
34.949200
 20
43.321300
 40
0.139700
  0
CIRCLE
  8
PIN_TOP
 10
35.599200
 20
26.421100
 40
0.139700
  0
CIRCLE
  8
PIN_TOP
 10
35.599200
 20
27.071100
 40
0.139700
  0
CIRCLE
  8
PIN_TOP
 10
35.599200
 20
27.721100
 40
0.139700
  0
CIRCLE
  8
PIN_TOP
 10
35.599200
 20
28.371100
 40
0.139700
  0
CIRCLE
  8
PIN_TOP
 10
35.599200
 20
29.021300
 40
0.139700
  0
CIRCLE
  8
PIN_TOP
 10
35.599200
 20
29.671300
 40
0.139700
  0
CIRCLE
  8
PIN_TOP
 10
35.599200
 20
30.321300
 40
0.139700
  0
CIRCLE
  8
PIN_TOP
 10
35.599200
 20
32.271300
 40
0.139700
  0
CIRCLE
  8
PIN_TOP
 10
35.599200
 20
32.921200
 40
0.139700
  0
CIRCLE
  8
PIN_TOP
 10
35.599200
 20
33.571200
 40
0.139700
  0
CIRCLE
  8
PIN_TOP
 10
35.599200
 20
34.221200
 40
0.139700
  0
CIRCLE
  8
PIN_TOP
 10
35.599200
 20
34.871200
 40
0.139700
  0
CIRCLE
  8
PIN_TOP
 10
35.599200
 20
35.521200
 40
0.139700
  0
CIRCLE
  8
PIN_TOP
 10
35.599200
 20
36.171200
 40
0.139700
  0
CIRCLE
  8
PIN_TOP
 10
35.599200
 20
36.821200
 40
0.139700
  0
CIRCLE
  8
PIN_TOP
 10
35.599200
 20
37.471100
 40
0.139700
  0
CIRCLE
  8
PIN_TOP
 10
35.599200
 20
39.421100
 40
0.139700
  0
CIRCLE
  8
PIN_TOP
 10
35.599200
 20
40.071100
 40
0.139700
  0
CIRCLE
  8
PIN_TOP
 10
35.599200
 20
40.721100
 40
0.139700
  0
CIRCLE
  8
PIN_TOP
 10
35.599200
 20
41.371300
 40
0.139700
  0
CIRCLE
  8
PIN_TOP
 10
35.599200
 20
42.021300
 40
0.139700
  0
CIRCLE
  8
PIN_TOP
 10
35.599200
 20
42.671300
 40
0.139700
  0
CIRCLE
  8
PIN_TOP
 10
35.599200
 20
43.321300
 40
0.139700
  0
CIRCLE
  8
PIN_TOP
 10
36.249200
 20
26.421100
 40
0.139700
  0
CIRCLE
  8
PIN_TOP
 10
36.249200
 20
27.071100
 40
0.139700
  0
CIRCLE
  8
PIN_TOP
 10
36.249200
 20
27.721100
 40
0.139700
  0
CIRCLE
  8
PIN_TOP
 10
36.249200
 20
28.371100
 40
0.139700
  0
CIRCLE
  8
PIN_TOP
 10
36.249200
 20
29.021300
 40
0.139700
  0
CIRCLE
  8
PIN_TOP
 10
36.249200
 20
29.671300
 40
0.139700
  0
CIRCLE
  8
PIN_TOP
 10
36.249200
 20
30.321300
 40
0.139700
  0
CIRCLE
  8
PIN_TOP
 10
36.249200
 20
31.621300
 40
0.139700
  0
CIRCLE
  8
PIN_TOP
 10
36.249200
 20
32.271300
 40
0.139700
  0
CIRCLE
  8
PIN_TOP
 10
36.249200
 20
32.921200
 40
0.139700
  0
CIRCLE
  8
PIN_TOP
 10
36.249200
 20
33.571200
 40
0.139700
  0
CIRCLE
  8
PIN_TOP
 10
36.249200
 20
34.221200
 40
0.139700
  0
CIRCLE
  8
PIN_TOP
 10
36.249200
 20
34.871200
 40
0.139700
  0
CIRCLE
  8
PIN_TOP
 10
36.249200
 20
35.521200
 40
0.139700
  0
CIRCLE
  8
PIN_TOP
 10
36.249200
 20
36.171200
 40
0.139700
  0
CIRCLE
  8
PIN_TOP
 10
36.249200
 20
36.821200
 40
0.139700
  0
CIRCLE
  8
PIN_TOP
 10
36.249200
 20
37.471100
 40
0.139700
  0
CIRCLE
  8
PIN_TOP
 10
36.249200
 20
38.121100
 40
0.139700
  0
CIRCLE
  8
PIN_TOP
 10
36.249200
 20
39.421100
 40
0.139700
  0
CIRCLE
  8
PIN_TOP
 10
36.249200
 20
40.071100
 40
0.139700
  0
CIRCLE
  8
PIN_TOP
 10
36.249200
 20
40.721100
 40
0.139700
  0
CIRCLE
  8
PIN_TOP
 10
36.249200
 20
41.371300
 40
0.139700
  0
CIRCLE
  8
PIN_TOP
 10
36.249200
 20
42.021300
 40
0.139700
  0
CIRCLE
  8
PIN_TOP
 10
36.249200
 20
42.671300
 40
0.139700
  0
CIRCLE
  8
PIN_TOP
 10
36.249200
 20
43.321300
 40
0.139700
  0
CIRCLE
  8
PIN_TOP
 10
36.899100
 20
26.421100
 40
0.139700
  0
CIRCLE
  8
PIN_TOP
 10
36.899100
 20
27.071100
 40
0.139700
  0
CIRCLE
  8
PIN_TOP
 10
36.899100
 20
27.721100
 40
0.139700
  0
CIRCLE
  8
PIN_TOP
 10
36.899100
 20
28.371100
 40
0.139700
  0
CIRCLE
  8
PIN_TOP
 10
36.899100
 20
29.021300
 40
0.139700
  0
CIRCLE
  8
PIN_TOP
 10
36.899100
 20
29.671300
 40
0.139700
  0
CIRCLE
  8
PIN_TOP
 10
36.899100
 20
30.321300
 40
0.139700
  0
CIRCLE
  8
PIN_TOP
 10
36.899100
 20
30.971300
 40
0.139700
  0
CIRCLE
  8
PIN_TOP
 10
36.899100
 20
31.621300
 40
0.139700
  0
CIRCLE
  8
PIN_TOP
 10
36.899100
 20
32.271300
 40
0.139700
  0
CIRCLE
  8
PIN_TOP
 10
36.899100
 20
32.921200
 40
0.139700
  0
CIRCLE
  8
PIN_TOP
 10
36.899100
 20
33.571200
 40
0.139700
  0
CIRCLE
  8
PIN_TOP
 10
36.899100
 20
34.221200
 40
0.139700
  0
CIRCLE
  8
PIN_TOP
 10
36.899100
 20
34.871200
 40
0.139700
  0
CIRCLE
  8
PIN_TOP
 10
36.899100
 20
35.521200
 40
0.139700
  0
CIRCLE
  8
PIN_TOP
 10
36.899100
 20
36.171200
 40
0.139700
  0
CIRCLE
  8
PIN_TOP
 10
36.899100
 20
36.821200
 40
0.139700
  0
CIRCLE
  8
PIN_TOP
 10
36.899100
 20
37.471100
 40
0.139700
  0
CIRCLE
  8
PIN_TOP
 10
36.899100
 20
38.121100
 40
0.139700
  0
CIRCLE
  8
PIN_TOP
 10
36.899100
 20
38.771100
 40
0.139700
  0
CIRCLE
  8
PIN_TOP
 10
36.899100
 20
39.421100
 40
0.139700
  0
CIRCLE
  8
PIN_TOP
 10
36.899100
 20
40.071100
 40
0.139700
  0
CIRCLE
  8
PIN_TOP
 10
36.899100
 20
40.721100
 40
0.139700
  0
CIRCLE
  8
PIN_TOP
 10
36.899100
 20
41.371300
 40
0.139700
  0
CIRCLE
  8
PIN_TOP
 10
36.899100
 20
42.021300
 40
0.139700
  0
CIRCLE
  8
PIN_TOP
 10
36.899100
 20
42.671300
 40
0.139700
  0
CIRCLE
  8
PIN_TOP
 10
36.899100
 20
43.321300
 40
0.139700
  0
CIRCLE
  8
PIN_TOP
 10
37.549100
 20
26.421100
 40
0.139700
  0
CIRCLE
  8
PIN_TOP
 10
37.549100
 20
27.071100
 40
0.139700
  0
CIRCLE
  8
PIN_TOP
 10
37.549100
 20
27.721100
 40
0.139700
  0
CIRCLE
  8
PIN_TOP
 10
37.549100
 20
28.371100
 40
0.139700
  0
CIRCLE
  8
PIN_TOP
 10
37.549100
 20
29.021300
 40
0.139700
  0
CIRCLE
  8
PIN_TOP
 10
37.549100
 20
29.671300
 40
0.139700
  0
CIRCLE
  8
PIN_TOP
 10
37.549100
 20
30.321300
 40
0.139700
  0
CIRCLE
  8
PIN_TOP
 10
37.549100
 20
30.971300
 40
0.139700
  0
CIRCLE
  8
PIN_TOP
 10
37.549100
 20
31.621300
 40
0.139700
  0
CIRCLE
  8
PIN_TOP
 10
37.549100
 20
32.271300
 40
0.139700
  0
CIRCLE
  8
PIN_TOP
 10
37.549100
 20
32.921200
 40
0.139700
  0
CIRCLE
  8
PIN_TOP
 10
37.549100
 20
33.571200
 40
0.139700
  0
CIRCLE
  8
PIN_TOP
 10
37.549100
 20
34.221200
 40
0.139700
  0
CIRCLE
  8
PIN_TOP
 10
37.549100
 20
34.871200
 40
0.139700
  0
CIRCLE
  8
PIN_TOP
 10
37.549100
 20
35.521200
 40
0.139700
  0
CIRCLE
  8
PIN_TOP
 10
37.549100
 20
36.171200
 40
0.139700
  0
CIRCLE
  8
PIN_TOP
 10
37.549100
 20
36.821200
 40
0.139700
  0
CIRCLE
  8
PIN_TOP
 10
37.549100
 20
37.471100
 40
0.139700
  0
CIRCLE
  8
PIN_TOP
 10
37.549100
 20
38.121100
 40
0.139700
  0
CIRCLE
  8
PIN_TOP
 10
37.549100
 20
38.771100
 40
0.139700
  0
CIRCLE
  8
PIN_TOP
 10
37.549100
 20
39.421100
 40
0.139700
  0
CIRCLE
  8
PIN_TOP
 10
37.549100
 20
40.071100
 40
0.139700
  0
CIRCLE
  8
PIN_TOP
 10
37.549100
 20
40.721100
 40
0.139700
  0
CIRCLE
  8
PIN_TOP
 10
37.549100
 20
41.371300
 40
0.139700
  0
CIRCLE
  8
PIN_TOP
 10
37.549100
 20
42.021300
 40
0.139700
  0
CIRCLE
  8
PIN_TOP
 10
37.549100
 20
42.671300
 40
0.139700
  0
CIRCLE
  8
PIN_TOP
 10
37.549100
 20
43.321300
 40
0.139700
  0
CIRCLE
  8
PIN_TOP
 10
38.199100
 20
26.421100
 40
0.139700
  0
CIRCLE
  8
PIN_TOP
 10
38.199100
 20
27.071100
 40
0.139700
  0
CIRCLE
  8
PIN_TOP
 10
38.199100
 20
27.721100
 40
0.139700
  0
CIRCLE
  8
PIN_TOP
 10
38.199100
 20
28.371100
 40
0.139700
  0
CIRCLE
  8
PIN_TOP
 10
38.199100
 20
29.021300
 40
0.139700
  0
CIRCLE
  8
PIN_TOP
 10
38.199100
 20
29.671300
 40
0.139700
  0
CIRCLE
  8
PIN_TOP
 10
38.199100
 20
30.321300
 40
0.139700
  0
CIRCLE
  8
PIN_TOP
 10
38.199100
 20
30.971300
 40
0.139700
  0
CIRCLE
  8
PIN_TOP
 10
38.199100
 20
31.621300
 40
0.139700
  0
CIRCLE
  8
PIN_TOP
 10
38.199100
 20
32.271300
 40
0.139700
  0
CIRCLE
  8
PIN_TOP
 10
38.199100
 20
32.921200
 40
0.139700
  0
CIRCLE
  8
PIN_TOP
 10
38.199100
 20
33.571200
 40
0.139700
  0
CIRCLE
  8
PIN_TOP
 10
38.199100
 20
34.221200
 40
0.139700
  0
CIRCLE
  8
PIN_TOP
 10
38.199100
 20
34.871200
 40
0.139700
  0
CIRCLE
  8
PIN_TOP
 10
38.199100
 20
35.521200
 40
0.139700
  0
CIRCLE
  8
PIN_TOP
 10
38.199100
 20
36.171200
 40
0.139700
  0
CIRCLE
  8
PIN_TOP
 10
38.199100
 20
36.821200
 40
0.139700
  0
CIRCLE
  8
PIN_TOP
 10
38.199100
 20
37.471100
 40
0.139700
  0
CIRCLE
  8
PIN_TOP
 10
38.199100
 20
38.121100
 40
0.139700
  0
CIRCLE
  8
PIN_TOP
 10
38.199100
 20
38.771100
 40
0.139700
  0
CIRCLE
  8
PIN_TOP
 10
38.199100
 20
39.421100
 40
0.139700
  0
CIRCLE
  8
PIN_TOP
 10
38.199100
 20
40.071100
 40
0.139700
  0
CIRCLE
  8
PIN_TOP
 10
38.199100
 20
40.721100
 40
0.139700
  0
CIRCLE
  8
PIN_TOP
 10
38.199100
 20
41.371300
 40
0.139700
  0
CIRCLE
  8
PIN_TOP
 10
38.199100
 20
42.021300
 40
0.139700
  0
CIRCLE
  8
PIN_TOP
 10
38.199100
 20
42.671300
 40
0.139700
  0
CIRCLE
  8
PIN_TOP
 10
38.199100
 20
43.321300
 40
0.139700
  0
CIRCLE
  8
PIN_TOP
 10
38.849100
 20
26.421100
 40
0.139700
  0
CIRCLE
  8
PIN_TOP
 10
38.849100
 20
27.071100
 40
0.139700
  0
CIRCLE
  8
PIN_TOP
 10
38.849100
 20
27.721100
 40
0.139700
  0
CIRCLE
  8
PIN_TOP
 10
38.849100
 20
28.371100
 40
0.139700
  0
CIRCLE
  8
PIN_TOP
 10
38.849100
 20
29.021300
 40
0.139700
  0
CIRCLE
  8
PIN_TOP
 10
38.849100
 20
29.671300
 40
0.139700
  0
CIRCLE
  8
PIN_TOP
 10
38.849100
 20
30.321300
 40
0.139700
  0
CIRCLE
  8
PIN_TOP
 10
38.849100
 20
30.971300
 40
0.139700
  0
CIRCLE
  8
PIN_TOP
 10
38.849100
 20
31.621300
 40
0.139700
  0
CIRCLE
  8
PIN_TOP
 10
38.849100
 20
32.271300
 40
0.139700
  0
CIRCLE
  8
PIN_TOP
 10
38.849100
 20
32.921200
 40
0.139700
  0
CIRCLE
  8
PIN_TOP
 10
38.849100
 20
33.571200
 40
0.139700
  0
CIRCLE
  8
PIN_TOP
 10
38.849100
 20
36.171200
 40
0.139700
  0
CIRCLE
  8
PIN_TOP
 10
38.849100
 20
36.821200
 40
0.139700
  0
CIRCLE
  8
PIN_TOP
 10
38.849100
 20
37.471100
 40
0.139700
  0
CIRCLE
  8
PIN_TOP
 10
38.849100
 20
38.121100
 40
0.139700
  0
CIRCLE
  8
PIN_TOP
 10
38.849100
 20
38.771100
 40
0.139700
  0
CIRCLE
  8
PIN_TOP
 10
38.849100
 20
39.421100
 40
0.139700
  0
CIRCLE
  8
PIN_TOP
 10
38.849100
 20
40.071100
 40
0.139700
  0
CIRCLE
  8
PIN_TOP
 10
38.849100
 20
40.721100
 40
0.139700
  0
CIRCLE
  8
PIN_TOP
 10
38.849100
 20
41.371300
 40
0.139700
  0
CIRCLE
  8
PIN_TOP
 10
38.849100
 20
42.021300
 40
0.139700
  0
CIRCLE
  8
PIN_TOP
 10
38.849100
 20
42.671300
 40
0.139700
  0
CIRCLE
  8
PIN_TOP
 10
38.849100
 20
43.321300
 40
0.139700
  0
CIRCLE
  8
PIN_TOP
 10
39.499100
 20
26.421100
 40
0.139700
  0
CIRCLE
  8
PIN_TOP
 10
39.499100
 20
27.071100
 40
0.139700
  0
CIRCLE
  8
PIN_TOP
 10
39.499100
 20
27.721100
 40
0.139700
  0
CIRCLE
  8
PIN_TOP
 10
39.499100
 20
28.371100
 40
0.139700
  0
CIRCLE
  8
PIN_TOP
 10
39.499100
 20
29.021300
 40
0.139700
  0
CIRCLE
  8
PIN_TOP
 10
39.499100
 20
29.671300
 40
0.139700
  0
CIRCLE
  8
PIN_TOP
 10
39.499100
 20
30.321300
 40
0.139700
  0
CIRCLE
  8
PIN_TOP
 10
39.499100
 20
30.971300
 40
0.139700
  0
CIRCLE
  8
PIN_TOP
 10
39.499100
 20
31.621300
 40
0.139700
  0
CIRCLE
  8
PIN_TOP
 10
39.499100
 20
32.271300
 40
0.139700
  0
CIRCLE
  8
PIN_TOP
 10
39.499100
 20
32.921200
 40
0.139700
  0
CIRCLE
  8
PIN_TOP
 10
39.499100
 20
33.571200
 40
0.139700
  0
CIRCLE
  8
PIN_TOP
 10
39.499100
 20
36.171200
 40
0.139700
  0
CIRCLE
  8
PIN_TOP
 10
39.499100
 20
36.821200
 40
0.139700
  0
CIRCLE
  8
PIN_TOP
 10
39.499100
 20
37.471100
 40
0.139700
  0
CIRCLE
  8
PIN_TOP
 10
39.499100
 20
38.121100
 40
0.139700
  0
CIRCLE
  8
PIN_TOP
 10
39.499100
 20
38.771100
 40
0.139700
  0
CIRCLE
  8
PIN_TOP
 10
39.499100
 20
39.421100
 40
0.139700
  0
CIRCLE
  8
PIN_TOP
 10
39.499100
 20
40.071100
 40
0.139700
  0
CIRCLE
  8
PIN_TOP
 10
39.499100
 20
40.721100
 40
0.139700
  0
CIRCLE
  8
PIN_TOP
 10
39.499100
 20
41.371300
 40
0.139700
  0
CIRCLE
  8
PIN_TOP
 10
39.499100
 20
42.021300
 40
0.139700
  0
CIRCLE
  8
PIN_TOP
 10
39.499100
 20
42.671300
 40
0.139700
  0
CIRCLE
  8
PIN_TOP
 10
39.499100
 20
43.321300
 40
0.139700
  0
CIRCLE
  8
PIN_TOP
 10
40.149300
 20
26.421100
 40
0.139700
  0
CIRCLE
  8
PIN_TOP
 10
40.149300
 20
27.071100
 40
0.139700
  0
CIRCLE
  8
PIN_TOP
 10
40.149300
 20
27.721100
 40
0.139700
  0
CIRCLE
  8
PIN_TOP
 10
40.149300
 20
28.371100
 40
0.139700
  0
CIRCLE
  8
PIN_TOP
 10
40.149300
 20
29.021300
 40
0.139700
  0
CIRCLE
  8
PIN_TOP
 10
40.149300
 20
29.671300
 40
0.139700
  0
CIRCLE
  8
PIN_TOP
 10
40.149300
 20
30.321300
 40
0.139700
  0
CIRCLE
  8
PIN_TOP
 10
40.149300
 20
30.971300
 40
0.139700
  0
CIRCLE
  8
PIN_TOP
 10
40.149300
 20
31.621300
 40
0.139700
  0
CIRCLE
  8
PIN_TOP
 10
40.149300
 20
32.271300
 40
0.139700
  0
CIRCLE
  8
PIN_TOP
 10
40.149300
 20
32.921200
 40
0.139700
  0
CIRCLE
  8
PIN_TOP
 10
40.149300
 20
33.571200
 40
0.139700
  0
CIRCLE
  8
PIN_TOP
 10
40.149300
 20
36.171200
 40
0.139700
  0
CIRCLE
  8
PIN_TOP
 10
40.149300
 20
36.821200
 40
0.139700
  0
CIRCLE
  8
PIN_TOP
 10
40.149300
 20
37.471100
 40
0.139700
  0
CIRCLE
  8
PIN_TOP
 10
40.149300
 20
38.121100
 40
0.139700
  0
CIRCLE
  8
PIN_TOP
 10
40.149300
 20
38.771100
 40
0.139700
  0
CIRCLE
  8
PIN_TOP
 10
40.149300
 20
39.421100
 40
0.139700
  0
CIRCLE
  8
PIN_TOP
 10
40.149300
 20
40.071100
 40
0.139700
  0
CIRCLE
  8
PIN_TOP
 10
40.149300
 20
40.721100
 40
0.139700
  0
CIRCLE
  8
PIN_TOP
 10
40.149300
 20
41.371300
 40
0.139700
  0
CIRCLE
  8
PIN_TOP
 10
40.149300
 20
42.021300
 40
0.139700
  0
CIRCLE
  8
PIN_TOP
 10
40.149300
 20
42.671300
 40
0.139700
  0
CIRCLE
  8
PIN_TOP
 10
40.149300
 20
43.321300
 40
0.139700
  0
CIRCLE
  8
PIN_TOP
 10
40.799300
 20
26.421100
 40
0.139700
  0
CIRCLE
  8
PIN_TOP
 10
40.799300
 20
27.071100
 40
0.139700
  0
CIRCLE
  8
PIN_TOP
 10
40.799300
 20
27.721100
 40
0.139700
  0
CIRCLE
  8
PIN_TOP
 10
40.799300
 20
28.371100
 40
0.139700
  0
CIRCLE
  8
PIN_TOP
 10
40.799300
 20
29.021300
 40
0.139700
  0
CIRCLE
  8
PIN_TOP
 10
40.799300
 20
29.671300
 40
0.139700
  0
CIRCLE
  8
PIN_TOP
 10
40.799300
 20
30.321300
 40
0.139700
  0
CIRCLE
  8
PIN_TOP
 10
40.799300
 20
30.971300
 40
0.139700
  0
CIRCLE
  8
PIN_TOP
 10
40.799300
 20
31.621300
 40
0.139700
  0
CIRCLE
  8
PIN_TOP
 10
40.799300
 20
32.271300
 40
0.139700
  0
CIRCLE
  8
PIN_TOP
 10
40.799300
 20
32.921200
 40
0.139700
  0
CIRCLE
  8
PIN_TOP
 10
40.799300
 20
33.571200
 40
0.139700
  0
CIRCLE
  8
PIN_TOP
 10
40.799300
 20
36.171200
 40
0.139700
  0
CIRCLE
  8
PIN_TOP
 10
40.799300
 20
36.821200
 40
0.139700
  0
CIRCLE
  8
PIN_TOP
 10
40.799300
 20
37.471100
 40
0.139700
  0
CIRCLE
  8
PIN_TOP
 10
40.799300
 20
38.121100
 40
0.139700
  0
CIRCLE
  8
PIN_TOP
 10
40.799300
 20
38.771100
 40
0.139700
  0
CIRCLE
  8
PIN_TOP
 10
40.799300
 20
39.421100
 40
0.139700
  0
CIRCLE
  8
PIN_TOP
 10
40.799300
 20
40.071100
 40
0.139700
  0
CIRCLE
  8
PIN_TOP
 10
40.799300
 20
40.721100
 40
0.139700
  0
CIRCLE
  8
PIN_TOP
 10
40.799300
 20
41.371300
 40
0.139700
  0
CIRCLE
  8
PIN_TOP
 10
40.799300
 20
42.021300
 40
0.139700
  0
CIRCLE
  8
PIN_TOP
 10
40.799300
 20
42.671300
 40
0.139700
  0
CIRCLE
  8
PIN_TOP
 10
40.799300
 20
43.321300
 40
0.139700
  0
CIRCLE
  8
PIN_TOP
 10
41.449300
 20
26.421100
 40
0.139700
  0
CIRCLE
  8
PIN_TOP
 10
41.449300
 20
27.071100
 40
0.139700
  0
CIRCLE
  8
PIN_TOP
 10
41.449300
 20
27.721100
 40
0.139700
  0
CIRCLE
  8
PIN_TOP
 10
41.449300
 20
28.371100
 40
0.139700
  0
CIRCLE
  8
PIN_TOP
 10
41.449300
 20
29.021300
 40
0.139700
  0
CIRCLE
  8
PIN_TOP
 10
41.449300
 20
29.671300
 40
0.139700
  0
CIRCLE
  8
PIN_TOP
 10
41.449300
 20
30.321300
 40
0.139700
  0
CIRCLE
  8
PIN_TOP
 10
41.449300
 20
30.971300
 40
0.139700
  0
CIRCLE
  8
PIN_TOP
 10
41.449300
 20
31.621300
 40
0.139700
  0
CIRCLE
  8
PIN_TOP
 10
41.449300
 20
32.271300
 40
0.139700
  0
CIRCLE
  8
PIN_TOP
 10
41.449300
 20
32.921200
 40
0.139700
  0
CIRCLE
  8
PIN_TOP
 10
41.449300
 20
33.571200
 40
0.139700
  0
CIRCLE
  8
PIN_TOP
 10
41.449300
 20
34.221200
 40
0.139700
  0
CIRCLE
  8
PIN_TOP
 10
41.449300
 20
34.871200
 40
0.139700
  0
CIRCLE
  8
PIN_TOP
 10
41.449300
 20
35.521200
 40
0.139700
  0
CIRCLE
  8
PIN_TOP
 10
41.449300
 20
36.171200
 40
0.139700
  0
CIRCLE
  8
PIN_TOP
 10
41.449300
 20
36.821200
 40
0.139700
  0
CIRCLE
  8
PIN_TOP
 10
41.449300
 20
37.471100
 40
0.139700
  0
CIRCLE
  8
PIN_TOP
 10
41.449300
 20
38.121100
 40
0.139700
  0
CIRCLE
  8
PIN_TOP
 10
41.449300
 20
38.771100
 40
0.139700
  0
CIRCLE
  8
PIN_TOP
 10
41.449300
 20
39.421100
 40
0.139700
  0
CIRCLE
  8
PIN_TOP
 10
41.449300
 20
40.071100
 40
0.139700
  0
CIRCLE
  8
PIN_TOP
 10
41.449300
 20
40.721100
 40
0.139700
  0
CIRCLE
  8
PIN_TOP
 10
41.449300
 20
41.371300
 40
0.139700
  0
CIRCLE
  8
PIN_TOP
 10
41.449300
 20
42.021300
 40
0.139700
  0
CIRCLE
  8
PIN_TOP
 10
41.449300
 20
42.671300
 40
0.139700
  0
CIRCLE
  8
PIN_TOP
 10
41.449300
 20
43.321300
 40
0.139700
  0
CIRCLE
  8
PIN_TOP
 10
42.099300
 20
26.421100
 40
0.139700
  0
CIRCLE
  8
PIN_TOP
 10
42.099300
 20
27.071100
 40
0.139700
  0
CIRCLE
  8
PIN_TOP
 10
42.099300
 20
27.721100
 40
0.139700
  0
CIRCLE
  8
PIN_TOP
 10
42.099300
 20
28.371100
 40
0.139700
  0
CIRCLE
  8
PIN_TOP
 10
42.099300
 20
29.021300
 40
0.139700
  0
CIRCLE
  8
PIN_TOP
 10
42.099300
 20
29.671300
 40
0.139700
  0
CIRCLE
  8
PIN_TOP
 10
42.099300
 20
30.321300
 40
0.139700
  0
CIRCLE
  8
PIN_TOP
 10
42.099300
 20
30.971300
 40
0.139700
  0
CIRCLE
  8
PIN_TOP
 10
42.099300
 20
31.621300
 40
0.139700
  0
CIRCLE
  8
PIN_TOP
 10
42.099300
 20
32.271300
 40
0.139700
  0
CIRCLE
  8
PIN_TOP
 10
42.099300
 20
32.921200
 40
0.139700
  0
CIRCLE
  8
PIN_TOP
 10
42.099300
 20
33.571200
 40
0.139700
  0
CIRCLE
  8
PIN_TOP
 10
42.099300
 20
34.221200
 40
0.139700
  0
CIRCLE
  8
PIN_TOP
 10
42.099300
 20
34.871200
 40
0.139700
  0
CIRCLE
  8
PIN_TOP
 10
42.099300
 20
35.521200
 40
0.139700
  0
CIRCLE
  8
PIN_TOP
 10
42.099300
 20
36.171200
 40
0.139700
  0
CIRCLE
  8
PIN_TOP
 10
42.099300
 20
36.821200
 40
0.139700
  0
CIRCLE
  8
PIN_TOP
 10
42.099300
 20
37.471100
 40
0.139700
  0
CIRCLE
  8
PIN_TOP
 10
42.099300
 20
38.121100
 40
0.139700
  0
CIRCLE
  8
PIN_TOP
 10
42.099300
 20
38.771100
 40
0.139700
  0
CIRCLE
  8
PIN_TOP
 10
42.099300
 20
39.421100
 40
0.139700
  0
CIRCLE
  8
PIN_TOP
 10
42.099300
 20
40.071100
 40
0.139700
  0
CIRCLE
  8
PIN_TOP
 10
42.099300
 20
40.721100
 40
0.139700
  0
CIRCLE
  8
PIN_TOP
 10
42.099300
 20
41.371300
 40
0.139700
  0
CIRCLE
  8
PIN_TOP
 10
42.099300
 20
42.021300
 40
0.139700
  0
CIRCLE
  8
PIN_TOP
 10
42.099300
 20
42.671300
 40
0.139700
  0
CIRCLE
  8
PIN_TOP
 10
42.099300
 20
43.321300
 40
0.139700
  0
CIRCLE
  8
PIN_TOP
 10
42.749300
 20
26.421100
 40
0.139700
  0
CIRCLE
  8
PIN_TOP
 10
42.749300
 20
27.071100
 40
0.139700
  0
CIRCLE
  8
PIN_TOP
 10
42.749300
 20
27.721100
 40
0.139700
  0
CIRCLE
  8
PIN_TOP
 10
42.749300
 20
28.371100
 40
0.139700
  0
CIRCLE
  8
PIN_TOP
 10
42.749300
 20
29.021300
 40
0.139700
  0
CIRCLE
  8
PIN_TOP
 10
42.749300
 20
29.671300
 40
0.139700
  0
CIRCLE
  8
PIN_TOP
 10
42.749300
 20
30.321300
 40
0.139700
  0
CIRCLE
  8
PIN_TOP
 10
42.749300
 20
30.971300
 40
0.139700
  0
CIRCLE
  8
PIN_TOP
 10
42.749300
 20
31.621300
 40
0.139700
  0
CIRCLE
  8
PIN_TOP
 10
42.749300
 20
32.271300
 40
0.139700
  0
CIRCLE
  8
PIN_TOP
 10
42.749300
 20
32.921200
 40
0.139700
  0
CIRCLE
  8
PIN_TOP
 10
42.749300
 20
33.571200
 40
0.139700
  0
CIRCLE
  8
PIN_TOP
 10
42.749300
 20
34.221200
 40
0.139700
  0
CIRCLE
  8
PIN_TOP
 10
42.749300
 20
34.871200
 40
0.139700
  0
CIRCLE
  8
PIN_TOP
 10
42.749300
 20
35.521200
 40
0.139700
  0
CIRCLE
  8
PIN_TOP
 10
42.749300
 20
36.171200
 40
0.139700
  0
CIRCLE
  8
PIN_TOP
 10
42.749300
 20
36.821200
 40
0.139700
  0
CIRCLE
  8
PIN_TOP
 10
42.749300
 20
37.471100
 40
0.139700
  0
CIRCLE
  8
PIN_TOP
 10
42.749300
 20
38.121100
 40
0.139700
  0
CIRCLE
  8
PIN_TOP
 10
42.749300
 20
38.771100
 40
0.139700
  0
CIRCLE
  8
PIN_TOP
 10
42.749300
 20
39.421100
 40
0.139700
  0
CIRCLE
  8
PIN_TOP
 10
42.749300
 20
40.071100
 40
0.139700
  0
CIRCLE
  8
PIN_TOP
 10
42.749300
 20
40.721100
 40
0.139700
  0
CIRCLE
  8
PIN_TOP
 10
42.749300
 20
41.371300
 40
0.139700
  0
CIRCLE
  8
PIN_TOP
 10
42.749300
 20
42.021300
 40
0.139700
  0
CIRCLE
  8
PIN_TOP
 10
42.749300
 20
42.671300
 40
0.139700
  0
CIRCLE
  8
PIN_TOP
 10
42.749300
 20
43.321300
 40
0.139700
  0
CIRCLE
  8
PIN_TOP
 10
43.399200
 20
26.421100
 40
0.139700
  0
CIRCLE
  8
PIN_TOP
 10
43.399200
 20
27.071100
 40
0.139700
  0
CIRCLE
  8
PIN_TOP
 10
43.399200
 20
27.721100
 40
0.139700
  0
CIRCLE
  8
PIN_TOP
 10
43.399200
 20
28.371100
 40
0.139700
  0
CIRCLE
  8
PIN_TOP
 10
43.399200
 20
29.021300
 40
0.139700
  0
CIRCLE
  8
PIN_TOP
 10
43.399200
 20
29.671300
 40
0.139700
  0
CIRCLE
  8
PIN_TOP
 10
43.399200
 20
30.321300
 40
0.139700
  0
CIRCLE
  8
PIN_TOP
 10
43.399200
 20
31.621300
 40
0.139700
  0
CIRCLE
  8
PIN_TOP
 10
43.399200
 20
32.271300
 40
0.139700
  0
CIRCLE
  8
PIN_TOP
 10
43.399200
 20
32.921200
 40
0.139700
  0
CIRCLE
  8
PIN_TOP
 10
43.399200
 20
33.571200
 40
0.139700
  0
CIRCLE
  8
PIN_TOP
 10
43.399200
 20
34.221200
 40
0.139700
  0
CIRCLE
  8
PIN_TOP
 10
43.399200
 20
34.871200
 40
0.139700
  0
CIRCLE
  8
PIN_TOP
 10
43.399200
 20
35.521200
 40
0.139700
  0
CIRCLE
  8
PIN_TOP
 10
43.399200
 20
36.171200
 40
0.139700
  0
CIRCLE
  8
PIN_TOP
 10
43.399200
 20
36.821200
 40
0.139700
  0
CIRCLE
  8
PIN_TOP
 10
43.399200
 20
37.471100
 40
0.139700
  0
CIRCLE
  8
PIN_TOP
 10
43.399200
 20
38.121100
 40
0.139700
  0
CIRCLE
  8
PIN_TOP
 10
43.399200
 20
39.421100
 40
0.139700
  0
CIRCLE
  8
PIN_TOP
 10
43.399200
 20
40.071100
 40
0.139700
  0
CIRCLE
  8
PIN_TOP
 10
43.399200
 20
40.721100
 40
0.139700
  0
CIRCLE
  8
PIN_TOP
 10
43.399200
 20
41.371300
 40
0.139700
  0
CIRCLE
  8
PIN_TOP
 10
43.399200
 20
42.021300
 40
0.139700
  0
CIRCLE
  8
PIN_TOP
 10
43.399200
 20
42.671300
 40
0.139700
  0
CIRCLE
  8
PIN_TOP
 10
43.399200
 20
43.321300
 40
0.139700
  0
CIRCLE
  8
PIN_TOP
 10
44.049200
 20
26.421100
 40
0.139700
  0
CIRCLE
  8
PIN_TOP
 10
44.049200
 20
27.071100
 40
0.139700
  0
CIRCLE
  8
PIN_TOP
 10
44.049200
 20
27.721100
 40
0.139700
  0
CIRCLE
  8
PIN_TOP
 10
44.049200
 20
28.371100
 40
0.139700
  0
CIRCLE
  8
PIN_TOP
 10
44.049200
 20
29.021300
 40
0.139700
  0
CIRCLE
  8
PIN_TOP
 10
44.049200
 20
29.671300
 40
0.139700
  0
CIRCLE
  8
PIN_TOP
 10
44.049200
 20
30.321300
 40
0.139700
  0
CIRCLE
  8
PIN_TOP
 10
44.049200
 20
32.271300
 40
0.139700
  0
CIRCLE
  8
PIN_TOP
 10
44.049200
 20
32.921200
 40
0.139700
  0
CIRCLE
  8
PIN_TOP
 10
44.049200
 20
33.571200
 40
0.139700
  0
CIRCLE
  8
PIN_TOP
 10
44.049200
 20
34.221200
 40
0.139700
  0
CIRCLE
  8
PIN_TOP
 10
44.049200
 20
34.871200
 40
0.139700
  0
CIRCLE
  8
PIN_TOP
 10
44.049200
 20
35.521200
 40
0.139700
  0
CIRCLE
  8
PIN_TOP
 10
44.049200
 20
36.171200
 40
0.139700
  0
CIRCLE
  8
PIN_TOP
 10
44.049200
 20
36.821200
 40
0.139700
  0
CIRCLE
  8
PIN_TOP
 10
44.049200
 20
37.471100
 40
0.139700
  0
CIRCLE
  8
PIN_TOP
 10
44.049200
 20
39.421100
 40
0.139700
  0
CIRCLE
  8
PIN_TOP
 10
44.049200
 20
40.071100
 40
0.139700
  0
CIRCLE
  8
PIN_TOP
 10
44.049200
 20
40.721100
 40
0.139700
  0
CIRCLE
  8
PIN_TOP
 10
44.049200
 20
41.371300
 40
0.139700
  0
CIRCLE
  8
PIN_TOP
 10
44.049200
 20
42.021300
 40
0.139700
  0
CIRCLE
  8
PIN_TOP
 10
44.049200
 20
42.671300
 40
0.139700
  0
CIRCLE
  8
PIN_TOP
 10
44.049200
 20
43.321300
 40
0.139700
  0
CIRCLE
  8
PIN_TOP
 10
44.699200
 20
26.421100
 40
0.139700
  0
CIRCLE
  8
PIN_TOP
 10
44.699200
 20
27.071100
 40
0.139700
  0
CIRCLE
  8
PIN_TOP
 10
44.699200
 20
27.721100
 40
0.139700
  0
CIRCLE
  8
PIN_TOP
 10
44.699200
 20
28.371100
 40
0.139700
  0
CIRCLE
  8
PIN_TOP
 10
44.699200
 20
29.021300
 40
0.139700
  0
CIRCLE
  8
PIN_TOP
 10
44.699200
 20
29.671300
 40
0.139700
  0
CIRCLE
  8
PIN_TOP
 10
44.699200
 20
30.321300
 40
0.139700
  0
CIRCLE
  8
PIN_TOP
 10
44.699200
 20
30.971300
 40
0.139700
  0
CIRCLE
  8
PIN_TOP
 10
44.699200
 20
31.621300
 40
0.139700
  0
CIRCLE
  8
PIN_TOP
 10
44.699200
 20
32.271300
 40
0.139700
  0
CIRCLE
  8
PIN_TOP
 10
44.699200
 20
32.921200
 40
0.139700
  0
CIRCLE
  8
PIN_TOP
 10
44.699200
 20
33.571200
 40
0.139700
  0
CIRCLE
  8
PIN_TOP
 10
44.699200
 20
34.221200
 40
0.139700
  0
CIRCLE
  8
PIN_TOP
 10
44.699200
 20
34.871200
 40
0.139700
  0
CIRCLE
  8
PIN_TOP
 10
44.699200
 20
35.521200
 40
0.139700
  0
CIRCLE
  8
PIN_TOP
 10
44.699200
 20
36.171200
 40
0.139700
  0
CIRCLE
  8
PIN_TOP
 10
44.699200
 20
36.821200
 40
0.139700
  0
CIRCLE
  8
PIN_TOP
 10
44.699200
 20
37.471100
 40
0.139700
  0
CIRCLE
  8
PIN_TOP
 10
44.699200
 20
38.121100
 40
0.139700
  0
CIRCLE
  8
PIN_TOP
 10
44.699200
 20
38.771100
 40
0.139700
  0
CIRCLE
  8
PIN_TOP
 10
44.699200
 20
39.421100
 40
0.139700
  0
CIRCLE
  8
PIN_TOP
 10
44.699200
 20
40.071100
 40
0.139700
  0
CIRCLE
  8
PIN_TOP
 10
44.699200
 20
40.721100
 40
0.139700
  0
CIRCLE
  8
PIN_TOP
 10
44.699200
 20
41.371300
 40
0.139700
  0
CIRCLE
  8
PIN_TOP
 10
44.699200
 20
42.021300
 40
0.139700
  0
CIRCLE
  8
PIN_TOP
 10
44.699200
 20
42.671300
 40
0.139700
  0
CIRCLE
  8
PIN_TOP
 10
44.699200
 20
43.321300
 40
0.139700
  0
CIRCLE
  8
PIN_TOP
 10
45.349200
 20
26.421100
 40
0.139700
  0
CIRCLE
  8
PIN_TOP
 10
45.349200
 20
27.071100
 40
0.139700
  0
CIRCLE
  8
PIN_TOP
 10
45.349200
 20
27.721100
 40
0.139700
  0
CIRCLE
  8
PIN_TOP
 10
45.349200
 20
28.371100
 40
0.139700
  0
CIRCLE
  8
PIN_TOP
 10
45.349200
 20
29.021300
 40
0.139700
  0
CIRCLE
  8
PIN_TOP
 10
45.349200
 20
29.671300
 40
0.139700
  0
CIRCLE
  8
PIN_TOP
 10
45.349200
 20
30.321300
 40
0.139700
  0
CIRCLE
  8
PIN_TOP
 10
45.349200
 20
30.971300
 40
0.139700
  0
CIRCLE
  8
PIN_TOP
 10
45.349200
 20
31.621300
 40
0.139700
  0
CIRCLE
  8
PIN_TOP
 10
45.349200
 20
32.271300
 40
0.139700
  0
CIRCLE
  8
PIN_TOP
 10
45.349200
 20
32.921200
 40
0.139700
  0
CIRCLE
  8
PIN_TOP
 10
45.349200
 20
33.571200
 40
0.139700
  0
CIRCLE
  8
PIN_TOP
 10
45.349200
 20
34.221200
 40
0.139700
  0
CIRCLE
  8
PIN_TOP
 10
45.349200
 20
34.871200
 40
0.139700
  0
CIRCLE
  8
PIN_TOP
 10
45.349200
 20
35.521200
 40
0.139700
  0
CIRCLE
  8
PIN_TOP
 10
45.349200
 20
36.171200
 40
0.139700
  0
CIRCLE
  8
PIN_TOP
 10
45.349200
 20
36.821200
 40
0.139700
  0
CIRCLE
  8
PIN_TOP
 10
45.349200
 20
37.471100
 40
0.139700
  0
CIRCLE
  8
PIN_TOP
 10
45.349200
 20
38.121100
 40
0.139700
  0
CIRCLE
  8
PIN_TOP
 10
45.349200
 20
38.771100
 40
0.139700
  0
CIRCLE
  8
PIN_TOP
 10
45.349200
 20
39.421100
 40
0.139700
  0
CIRCLE
  8
PIN_TOP
 10
45.349200
 20
40.071100
 40
0.139700
  0
CIRCLE
  8
PIN_TOP
 10
45.349200
 20
40.721100
 40
0.139700
  0
CIRCLE
  8
PIN_TOP
 10
45.349200
 20
41.371300
 40
0.139700
  0
CIRCLE
  8
PIN_TOP
 10
45.349200
 20
42.021300
 40
0.139700
  0
CIRCLE
  8
PIN_TOP
 10
45.349200
 20
42.671300
 40
0.139700
  0
CIRCLE
  8
PIN_TOP
 10
45.349200
 20
43.321300
 40
0.139700
  0
CIRCLE
  8
PIN_TOP
 10
45.999200
 20
26.421100
 40
0.139700
  0
CIRCLE
  8
PIN_TOP
 10
45.999200
 20
27.071100
 40
0.139700
  0
CIRCLE
  8
PIN_TOP
 10
45.999200
 20
27.721100
 40
0.139700
  0
CIRCLE
  8
PIN_TOP
 10
45.999200
 20
28.371100
 40
0.139700
  0
CIRCLE
  8
PIN_TOP
 10
45.999200
 20
29.021300
 40
0.139700
  0
CIRCLE
  8
PIN_TOP
 10
45.999200
 20
29.671300
 40
0.139700
  0
CIRCLE
  8
PIN_TOP
 10
45.999200
 20
30.321300
 40
0.139700
  0
CIRCLE
  8
PIN_TOP
 10
45.999200
 20
30.971300
 40
0.139700
  0
CIRCLE
  8
PIN_TOP
 10
45.999200
 20
31.621300
 40
0.139700
  0
CIRCLE
  8
PIN_TOP
 10
45.999200
 20
32.271300
 40
0.139700
  0
CIRCLE
  8
PIN_TOP
 10
45.999200
 20
32.921200
 40
0.139700
  0
CIRCLE
  8
PIN_TOP
 10
45.999200
 20
33.571200
 40
0.139700
  0
CIRCLE
  8
PIN_TOP
 10
45.999200
 20
34.221200
 40
0.139700
  0
CIRCLE
  8
PIN_TOP
 10
45.999200
 20
34.871200
 40
0.139700
  0
CIRCLE
  8
PIN_TOP
 10
45.999200
 20
35.521200
 40
0.139700
  0
CIRCLE
  8
PIN_TOP
 10
45.999200
 20
36.171200
 40
0.139700
  0
CIRCLE
  8
PIN_TOP
 10
45.999200
 20
36.821200
 40
0.139700
  0
CIRCLE
  8
PIN_TOP
 10
45.999200
 20
37.471100
 40
0.139700
  0
CIRCLE
  8
PIN_TOP
 10
45.999200
 20
38.121100
 40
0.139700
  0
CIRCLE
  8
PIN_TOP
 10
45.999200
 20
38.771100
 40
0.139700
  0
CIRCLE
  8
PIN_TOP
 10
45.999200
 20
39.421100
 40
0.139700
  0
CIRCLE
  8
PIN_TOP
 10
45.999200
 20
40.071100
 40
0.139700
  0
CIRCLE
  8
PIN_TOP
 10
45.999200
 20
40.721100
 40
0.139700
  0
CIRCLE
  8
PIN_TOP
 10
45.999200
 20
41.371300
 40
0.139700
  0
CIRCLE
  8
PIN_TOP
 10
45.999200
 20
42.021300
 40
0.139700
  0
CIRCLE
  8
PIN_TOP
 10
45.999200
 20
42.671300
 40
0.139700
  0
CIRCLE
  8
PIN_TOP
 10
45.999200
 20
43.321300
 40
0.139700
  0
CIRCLE
  8
PIN_TOP
 10
46.649200
 20
26.421100
 40
0.139700
  0
CIRCLE
  8
PIN_TOP
 10
46.649200
 20
27.071100
 40
0.139700
  0
CIRCLE
  8
PIN_TOP
 10
46.649200
 20
27.721100
 40
0.139700
  0
CIRCLE
  8
PIN_TOP
 10
46.649200
 20
28.371100
 40
0.139700
  0
CIRCLE
  8
PIN_TOP
 10
46.649200
 20
29.021300
 40
0.139700
  0
CIRCLE
  8
PIN_TOP
 10
46.649200
 20
29.671300
 40
0.139700
  0
CIRCLE
  8
PIN_TOP
 10
46.649200
 20
30.321300
 40
0.139700
  0
CIRCLE
  8
PIN_TOP
 10
46.649200
 20
30.971300
 40
0.139700
  0
CIRCLE
  8
PIN_TOP
 10
46.649200
 20
31.621300
 40
0.139700
  0
CIRCLE
  8
PIN_TOP
 10
46.649200
 20
32.271300
 40
0.139700
  0
CIRCLE
  8
PIN_TOP
 10
46.649200
 20
32.921200
 40
0.139700
  0
CIRCLE
  8
PIN_TOP
 10
46.649200
 20
33.571200
 40
0.139700
  0
CIRCLE
  8
PIN_TOP
 10
46.649200
 20
34.221200
 40
0.139700
  0
CIRCLE
  8
PIN_TOP
 10
46.649200
 20
34.871200
 40
0.139700
  0
CIRCLE
  8
PIN_TOP
 10
46.649200
 20
35.521200
 40
0.139700
  0
CIRCLE
  8
PIN_TOP
 10
46.649200
 20
36.171200
 40
0.139700
  0
CIRCLE
  8
PIN_TOP
 10
46.649200
 20
36.821200
 40
0.139700
  0
CIRCLE
  8
PIN_TOP
 10
46.649200
 20
37.471100
 40
0.139700
  0
CIRCLE
  8
PIN_TOP
 10
46.649200
 20
38.121100
 40
0.139700
  0
CIRCLE
  8
PIN_TOP
 10
46.649200
 20
38.771100
 40
0.139700
  0
CIRCLE
  8
PIN_TOP
 10
46.649200
 20
39.421100
 40
0.139700
  0
CIRCLE
  8
PIN_TOP
 10
46.649200
 20
40.071100
 40
0.139700
  0
CIRCLE
  8
PIN_TOP
 10
46.649200
 20
40.721100
 40
0.139700
  0
CIRCLE
  8
PIN_TOP
 10
46.649200
 20
41.371300
 40
0.139700
  0
CIRCLE
  8
PIN_TOP
 10
46.649200
 20
42.021300
 40
0.139700
  0
CIRCLE
  8
PIN_TOP
 10
46.649200
 20
42.671300
 40
0.139700
  0
CIRCLE
  8
PIN_TOP
 10
46.649200
 20
43.321300
 40
0.139700
  0
CIRCLE
  8
PIN_TOP
 10
47.299200
 20
26.421100
 40
0.139700
  0
CIRCLE
  8
PIN_TOP
 10
47.299200
 20
27.071100
 40
0.139700
  0
CIRCLE
  8
PIN_TOP
 10
47.299200
 20
27.721100
 40
0.139700
  0
CIRCLE
  8
PIN_TOP
 10
47.299200
 20
28.371100
 40
0.139700
  0
CIRCLE
  8
PIN_TOP
 10
47.299200
 20
29.021300
 40
0.139700
  0
CIRCLE
  8
PIN_TOP
 10
47.299200
 20
29.671300
 40
0.139700
  0
CIRCLE
  8
PIN_TOP
 10
47.299200
 20
30.321300
 40
0.139700
  0
CIRCLE
  8
PIN_TOP
 10
47.299200
 20
30.971300
 40
0.139700
  0
CIRCLE
  8
PIN_TOP
 10
47.299200
 20
31.621300
 40
0.139700
  0
CIRCLE
  8
PIN_TOP
 10
47.299200
 20
32.271300
 40
0.139700
  0
CIRCLE
  8
PIN_TOP
 10
47.299200
 20
32.921200
 40
0.139700
  0
CIRCLE
  8
PIN_TOP
 10
47.299200
 20
33.571200
 40
0.139700
  0
CIRCLE
  8
PIN_TOP
 10
47.299200
 20
34.221200
 40
0.139700
  0
CIRCLE
  8
PIN_TOP
 10
47.299200
 20
34.871200
 40
0.139700
  0
CIRCLE
  8
PIN_TOP
 10
47.299200
 20
35.521200
 40
0.139700
  0
CIRCLE
  8
PIN_TOP
 10
47.299200
 20
36.171200
 40
0.139700
  0
CIRCLE
  8
PIN_TOP
 10
47.299200
 20
36.821200
 40
0.139700
  0
CIRCLE
  8
PIN_TOP
 10
47.299200
 20
37.471100
 40
0.139700
  0
CIRCLE
  8
PIN_TOP
 10
47.299200
 20
38.121100
 40
0.139700
  0
CIRCLE
  8
PIN_TOP
 10
47.299200
 20
38.771100
 40
0.139700
  0
CIRCLE
  8
PIN_TOP
 10
47.299200
 20
39.421100
 40
0.139700
  0
CIRCLE
  8
PIN_TOP
 10
47.299200
 20
40.071100
 40
0.139700
  0
CIRCLE
  8
PIN_TOP
 10
47.299200
 20
40.721100
 40
0.139700
  0
CIRCLE
  8
PIN_TOP
 10
47.299200
 20
41.371300
 40
0.139700
  0
CIRCLE
  8
PIN_TOP
 10
47.299200
 20
42.021300
 40
0.139700
  0
CIRCLE
  8
PIN_TOP
 10
47.299200
 20
42.671300
 40
0.139700
  0
CIRCLE
  8
PIN_TOP
 10
47.299200
 20
43.321300
 40
0.139700
  0
CIRCLE
  8
PIN_TOP
 10
47.949200
 20
26.421100
 40
0.139700
  0
CIRCLE
  8
PIN_TOP
 10
47.949200
 20
27.071100
 40
0.139700
  0
CIRCLE
  8
PIN_TOP
 10
47.949200
 20
27.721100
 40
0.139700
  0
CIRCLE
  8
PIN_TOP
 10
47.949200
 20
28.371100
 40
0.139700
  0
CIRCLE
  8
PIN_TOP
 10
47.949200
 20
29.021300
 40
0.139700
  0
CIRCLE
  8
PIN_TOP
 10
47.949200
 20
29.671300
 40
0.139700
  0
CIRCLE
  8
PIN_TOP
 10
47.949200
 20
30.321300
 40
0.139700
  0
CIRCLE
  8
PIN_TOP
 10
47.949200
 20
30.971300
 40
0.139700
  0
CIRCLE
  8
PIN_TOP
 10
47.949200
 20
31.621300
 40
0.139700
  0
CIRCLE
  8
PIN_TOP
 10
47.949200
 20
32.271300
 40
0.139700
  0
CIRCLE
  8
PIN_TOP
 10
47.949200
 20
32.921200
 40
0.139700
  0
CIRCLE
  8
PIN_TOP
 10
47.949200
 20
33.571200
 40
0.139700
  0
CIRCLE
  8
PIN_TOP
 10
47.949200
 20
34.221200
 40
0.139700
  0
CIRCLE
  8
PIN_TOP
 10
47.949200
 20
34.871200
 40
0.139700
  0
CIRCLE
  8
PIN_TOP
 10
47.949200
 20
35.521200
 40
0.139700
  0
CIRCLE
  8
PIN_TOP
 10
47.949200
 20
36.171200
 40
0.139700
  0
CIRCLE
  8
PIN_TOP
 10
47.949200
 20
36.821200
 40
0.139700
  0
CIRCLE
  8
PIN_TOP
 10
47.949200
 20
37.471100
 40
0.139700
  0
CIRCLE
  8
PIN_TOP
 10
47.949200
 20
38.121100
 40
0.139700
  0
CIRCLE
  8
PIN_TOP
 10
47.949200
 20
38.771100
 40
0.139700
  0
CIRCLE
  8
PIN_TOP
 10
47.949200
 20
39.421100
 40
0.139700
  0
CIRCLE
  8
PIN_TOP
 10
47.949200
 20
40.071100
 40
0.139700
  0
CIRCLE
  8
PIN_TOP
 10
47.949200
 20
40.721100
 40
0.139700
  0
CIRCLE
  8
PIN_TOP
 10
47.949200
 20
41.371300
 40
0.139700
  0
CIRCLE
  8
PIN_TOP
 10
47.949200
 20
42.021300
 40
0.139700
  0
CIRCLE
  8
PIN_TOP
 10
47.949200
 20
42.671300
 40
0.139700
  0
CIRCLE
  8
PIN_TOP
 10
47.949200
 20
43.321300
 40
0.139700
  0
CIRCLE
  8
PIN_TOP
 10
48.599100
 20
26.421100
 40
0.139700
  0
CIRCLE
  8
PIN_TOP
 10
48.599100
 20
27.071100
 40
0.139700
  0
CIRCLE
  8
PIN_TOP
 10
48.599100
 20
27.721100
 40
0.139700
  0
CIRCLE
  8
PIN_TOP
 10
48.599100
 20
28.371100
 40
0.139700
  0
CIRCLE
  8
PIN_TOP
 10
48.599100
 20
29.021300
 40
0.139700
  0
CIRCLE
  8
PIN_TOP
 10
48.599100
 20
29.671300
 40
0.139700
  0
CIRCLE
  8
PIN_TOP
 10
48.599100
 20
30.321300
 40
0.139700
  0
CIRCLE
  8
PIN_TOP
 10
48.599100
 20
30.971300
 40
0.139700
  0
CIRCLE
  8
PIN_TOP
 10
48.599100
 20
31.621300
 40
0.139700
  0
CIRCLE
  8
PIN_TOP
 10
48.599100
 20
32.271300
 40
0.139700
  0
CIRCLE
  8
PIN_TOP
 10
48.599100
 20
32.921200
 40
0.139700
  0
CIRCLE
  8
PIN_TOP
 10
48.599100
 20
33.571200
 40
0.139700
  0
CIRCLE
  8
PIN_TOP
 10
48.599100
 20
34.221200
 40
0.139700
  0
CIRCLE
  8
PIN_TOP
 10
48.599100
 20
34.871200
 40
0.139700
  0
CIRCLE
  8
PIN_TOP
 10
48.599100
 20
35.521200
 40
0.139700
  0
CIRCLE
  8
PIN_TOP
 10
48.599100
 20
36.171200
 40
0.139700
  0
CIRCLE
  8
PIN_TOP
 10
48.599100
 20
36.821200
 40
0.139700
  0
CIRCLE
  8
PIN_TOP
 10
48.599100
 20
37.471100
 40
0.139700
  0
CIRCLE
  8
PIN_TOP
 10
48.599100
 20
38.121100
 40
0.139700
  0
CIRCLE
  8
PIN_TOP
 10
48.599100
 20
38.771100
 40
0.139700
  0
CIRCLE
  8
PIN_TOP
 10
48.599100
 20
39.421100
 40
0.139700
  0
CIRCLE
  8
PIN_TOP
 10
48.599100
 20
40.071100
 40
0.139700
  0
CIRCLE
  8
PIN_TOP
 10
48.599100
 20
40.721100
 40
0.139700
  0
CIRCLE
  8
PIN_TOP
 10
48.599100
 20
41.371300
 40
0.139700
  0
CIRCLE
  8
PIN_TOP
 10
48.599100
 20
42.021300
 40
0.139700
  0
CIRCLE
  8
PIN_TOP
 10
48.599100
 20
42.671300
 40
0.139700
  0
CIRCLE
  8
PIN_TOP
 10
48.599100
 20
43.321300
 40
0.139700
  0
CIRCLE
  8
PIN_TOP
 10
49.249100
 20
26.421100
 40
0.139700
  0
CIRCLE
  8
PIN_TOP
 10
49.249100
 20
27.071100
 40
0.139700
  0
CIRCLE
  8
PIN_TOP
 10
49.249100
 20
27.721100
 40
0.139700
  0
CIRCLE
  8
PIN_TOP
 10
49.249100
 20
28.371100
 40
0.139700
  0
CIRCLE
  8
PIN_TOP
 10
49.249100
 20
29.021300
 40
0.139700
  0
CIRCLE
  8
PIN_TOP
 10
49.249100
 20
29.671300
 40
0.139700
  0
CIRCLE
  8
PIN_TOP
 10
49.249100
 20
30.321300
 40
0.139700
  0
CIRCLE
  8
PIN_TOP
 10
49.249100
 20
30.971300
 40
0.139700
  0
CIRCLE
  8
PIN_TOP
 10
49.249100
 20
31.621300
 40
0.139700
  0
CIRCLE
  8
PIN_TOP
 10
49.249100
 20
32.271300
 40
0.139700
  0
CIRCLE
  8
PIN_TOP
 10
49.249100
 20
32.921200
 40
0.139700
  0
CIRCLE
  8
PIN_TOP
 10
49.249100
 20
33.571200
 40
0.139700
  0
CIRCLE
  8
PIN_TOP
 10
49.249100
 20
34.221200
 40
0.139700
  0
CIRCLE
  8
PIN_TOP
 10
49.249100
 20
34.871200
 40
0.139700
  0
CIRCLE
  8
PIN_TOP
 10
49.249100
 20
35.521200
 40
0.139700
  0
CIRCLE
  8
PIN_TOP
 10
49.249100
 20
36.171200
 40
0.139700
  0
CIRCLE
  8
PIN_TOP
 10
49.249100
 20
36.821200
 40
0.139700
  0
CIRCLE
  8
PIN_TOP
 10
49.249100
 20
37.471100
 40
0.139700
  0
CIRCLE
  8
PIN_TOP
 10
49.249100
 20
38.121100
 40
0.139700
  0
CIRCLE
  8
PIN_TOP
 10
49.249100
 20
38.771100
 40
0.139700
  0
CIRCLE
  8
PIN_TOP
 10
49.249100
 20
39.421100
 40
0.139700
  0
CIRCLE
  8
PIN_TOP
 10
49.249100
 20
40.071100
 40
0.139700
  0
CIRCLE
  8
PIN_TOP
 10
49.249100
 20
40.721100
 40
0.139700
  0
CIRCLE
  8
PIN_TOP
 10
49.249100
 20
41.371300
 40
0.139700
  0
CIRCLE
  8
PIN_TOP
 10
49.249100
 20
42.021300
 40
0.139700
  0
CIRCLE
  8
PIN_TOP
 10
49.249100
 20
42.671300
 40
0.139700
  0
CIRCLE
  8
PIN_TOP
 10
49.249100
 20
43.321300
 40
0.139700
  0
POLYLINE
  8
PG_SILKSCREEN_TOP
 66
1
 70
1
 40
0.000000
 41
0.000000
 39
0.000000
  0
VERTEX
  8
PG_SILKSCREEN_TOP
 10
49.824100
 20
25.871200
 40
0.000000
 41
0.000000
 42
0.000000
  0
VERTEX
  8
PG_SILKSCREEN_TOP
 10
49.824100
 20
43.871100
 40
0.000000
 41
0.000000
 42
0.000000
  0
VERTEX
  8
PG_SILKSCREEN_TOP
 10
29.824200
 20
43.871100
 40
0.000000
 41
0.000000
 42
0.000000
  0
VERTEX
  8
PG_SILKSCREEN_TOP
 10
29.824200
 20
25.871200
 40
0.000000
 41
0.000000
 42
0.000000
  0
SEQEND
  0
POLYLINE
  8
PG_SILKSCREEN_TOP
 66
1
 70
1
 40
0.000000
 41
0.000000
 39
0.000000
  0
VERTEX
  8
PG_SILKSCREEN_TOP
 10
29.424100
 20
26.471100
 40
0.000000
 41
0.000000
 42
0.000000
  0
VERTEX
  8
PG_SILKSCREEN_TOP
 10
29.824200
 20
26.471100
 40
0.000000
 41
0.000000
 42
0.000000
  0
VERTEX
  8
PG_SILKSCREEN_TOP
 10
29.824200
 20
25.871200
 40
0.000000
 41
0.000000
 42
0.000000
  0
VERTEX
  8
PG_SILKSCREEN_TOP
 10
30.424100
 20
25.871200
 40
0.000000
 41
0.000000
 42
0.000000
  0
VERTEX
  8
PG_SILKSCREEN_TOP
 10
30.424100
 20
25.471100
 40
0.000000
 41
0.000000
 42
0.000000
  0
VERTEX
  8
PG_SILKSCREEN_TOP
 10
29.424100
 20
25.471100
 40
0.000000
 41
0.000000
 42
0.000000
  0
SEQEND
  0
TEXT
  8
RD_SILKSCREEN_TOP
 10
30.581600
 20
25.061400
 11
0.000000
 21
0.000000
 40
0.635000
 41
0.880000
 50
0.000000
  7
STANDARD
 71
0
 72
0
  1
U1
 73
0
  0
POLYLINE
  8
BG_SILKSCREEN_TOP
 66
1
 70
0
 40
0.000000
 41
0.000000
 39
0.000000
  0
VERTEX
  8
BG_SILKSCREEN_TOP
 10
73.914000
 20
40.386000
 40
0.152400
 41
0.152400
 42
0.000000
  0
VERTEX
  8
BG_SILKSCREEN_TOP
 10
72.898000
 20
40.386000
 40
0.152400
 41
0.152400
 42
0.000000
  0
VERTEX
  8
BG_SILKSCREEN_TOP
 10
73.406000
 20
40.640000
 40
0.152400
 41
0.152400
 42
0.000000
  0
SEQEND
  0
POLYLINE
  8
BG_SILKSCREEN_TOP
 66
1
 70
1
 40
0.000000
 41
0.000000
 39
0.000000
  0
VERTEX
  8
BG_SILKSCREEN_TOP
 10
-3.683000
 20
56.515000
 40
0.000000
 41
0.000000
 42
0.000000
  0
VERTEX
  8
BG_SILKSCREEN_TOP
 10
-3.683000
 20
49.403000
 40
0.000000
 41
0.000000
 42
0.000000
  0
VERTEX
  8
BG_SILKSCREEN_TOP
 10
1.651000
 20
49.403000
 40
0.000000
 41
0.000000
 42
0.000000
  0
VERTEX
  8
BG_SILKSCREEN_TOP
 10
1.651000
 20
56.515000
 40
0.000000
 41
0.000000
 42
0.000000
  0
SEQEND
  0
POLYLINE
  8
BG_SILKSCREEN_TOP
 66
1
 70
1
 40
0.000000
 41
0.000000
 39
0.000000
  0
VERTEX
  8
BG_SILKSCREEN_TOP
 10
1.524000
 20
52.451000
 40
0.000000
 41
0.000000
 42
0.000000
  0
VERTEX
  8
BG_SILKSCREEN_TOP
 10
0.635000
 20
52.451000
 40
0.000000
 41
0.000000
 42
0.000000
  0
VERTEX
  8
BG_SILKSCREEN_TOP
 10
0.635000
 20
53.594000
 40
0.000000
 41
0.000000
 42
0.000000
  0
VERTEX
  8
BG_SILKSCREEN_TOP
 10
1.524000
 20
53.594000
 40
0.000000
 41
0.000000
 42
0.000000
  0
SEQEND
  0
POLYLINE
  8
BG_SILKSCREEN_TOP
 66
1
 70
1
 40
0.000000
 41
0.000000
 39
0.000000
  0
VERTEX
  8
BG_SILKSCREEN_TOP
 10
1.524000
 20
50.419000
 40
0.000000
 41
0.000000
 42
0.000000
  0
VERTEX
  8
BG_SILKSCREEN_TOP
 10
0.635000
 20
50.419000
 40
0.000000
 41
0.000000
 42
0.000000
  0
VERTEX
  8
BG_SILKSCREEN_TOP
 10
0.635000
 20
51.562000
 40
0.000000
 41
0.000000
 42
0.000000
  0
VERTEX
  8
BG_SILKSCREEN_TOP
 10
1.524000
 20
51.562000
 40
0.000000
 41
0.000000
 42
0.000000
  0
SEQEND
  0
POLYLINE
  8
BG_OUTLINE
 66
1
 70
1
 40
0.000000
 41
0.000000
 39
0.000000
  0
VERTEX
  8
BG_OUTLINE
 10
0.000000
 20
0.000000
 40
0.000000
 41
0.000000
 42
0.000000
  0
VERTEX
  8
BG_OUTLINE
 10
0.000000
 20
54.999900
 40
0.000000
 41
0.000000
 42
0.000000
  0
VERTEX
  8
BG_OUTLINE
 10
73.999900
 20
54.999900
 40
0.000000
 41
0.000000
 42
0.000000
  0
VERTEX
  8
BG_OUTLINE
 10
73.999900
 20
0.000000
 40
0.000000
 41
0.000000
 42
0.000000
  0
SEQEND
  0
TEXT
  8
BG_DIMENSION
 10
-0.893200
 20
-23.308300
 11
0.000000
 21
0.000000
 40
3.962400
 41
1.147436
 50
0.000000
  7
STANDARD
 71
0
 72
0
  1
unit:mm
 73
0
  0
TEXT
  8
PG_SILKSCREEN_TOP
 10
0.804333
 20
50.673000
 11
1.016000
 21
50.673000
 40
0.635000
 41
0.880000
 50
0.000000
  7
STANDARD
 71
0
 72
1
  1
1
 73
0
  0
TEXT
  8
PG_SILKSCREEN_TOP
 10
0.804333
 20
52.705000
 11
1.016000
 21
52.705000
 40
0.635000
 41
0.880000
 50
0.000000
  7
STANDARD
 71
0
 72
1
  1
2
 73
0
  0
TEXT
  8
BG_SILKSCREEN_TOP
 10
37.515800
 20
23.029400
 11
0.000000
 21
0.000000
 40
0.787400
 41
1.000000
 50
0.000000
  7
STANDARD
 71
0
 72
0
  1
1306
 73
0
  0
TEXT
  8
BG_SILKSCREEN_TOP
 10
32.131000
 20
24.341600
 11
0.000000
 21
0.000000
 40
1.270000
 41
0.880000
 50
0.000000
  7
STANDARD
 71
0
 72
0
  1
Tiny4412
 73
0
  0
ENDSEC
  0
EOF
